PrimaNota.ru - самый крупный в мире бесплатный архив песенных текстов, аккордов, табулатур и нот


Focus - Birth - бас-таба, видео

Регистрация Запомнить меня
Войти через:  Facebook Google Twitter Vk Yandex Mail.ru

Focus - Birth - бас-таба, видео

Печатать
Просмотров: 87


Birth by focus from the album hamburger concerto (74)
incredible song. Not a real timig in the tab 
but the notes are right.....you'll have to study on this one
tabbed by Hugo Geurdes
Written by jan akkerman
played by bert ruiter
corrections hugieboss@hotmail.com 
Netherlands 2004


1:01                                    1:22
-------------------------------------------------------------------------------
-------------------------------------------------------------------------------
-5-7-7......5-7-7......5-7-7......5-7-7.....5-7-7-5-7-7-5-7-7-5-7-7-5-7-7-5-7-7
-------------------------------------------------------------------------------

-------------------------------------------------------------------------------
--------------------------------------------------------3----------------------
-5-7-7-5-7-7--------7/8/9----------2--------7/8/9------3-----------------------
--------------5/6/7-------7-0---0----5/6/7-------7-0-------------------------
2:04              2:15                                 2:30
---------7--------------------9h11--------------------------------------------
-----------------------9/10/11-----------7------2-------------------5----------
-5-5-55-5--0/5-5-5-9h12------------5-5------------/5-5422--0-22---25-----------
---------------------------------------5---12----------------3---------------
                                       2:45      
----------------------------------------|-------------------------|--|---------
----------------------------------------|-------------------------|--|---------
-------3-2-0-------2-5-3-3/7--22--0-22--|-------(p)-333--555--777-|8x|---------
-3-5-7-------3-2----------------------3-|-3-5-7----------------00-|--|---------
3:28                                             3:39
----------------------------------|----------------|---------------------------
----------------------------------|----------------|------------25---4----97---
-------3-55-7777-------33-55-7/---|------3-55-7777-|x2-2/72--3-----5-5-7---107
-3-5-7-------000-3-5-7---------00-|3-5-7-------000-|---------------------------
    3:55                                                  4:09
-------------------------------------------------------------------------------
--------25--4----97------------25--4----97----------25--4----------------------
--0-2-3----5-5-7----107-0-2-3-----5-5-----107-0-2-3----5-5---------------------
--------------------------------------0--------------------0-------------------
4:13        4:30                                         4:50
|------|----------------------------------------------------7---7----7---------
|------|-----------------------------------------------3-----------------------
|-5-7-7|-x6-------7/8/9----------2--------7/8/9------3----5---5--0/5---0/5-5-5-
|------|----5/6/7-------7-0---0----5/6/7-------7-0---------------------------
                                      5:18
---------------9h11---------2-------------------------------------------------
-------9/10/11--------------------------------------5--------------------------
-9h12----------------5--5--0-------5--5422-0-22---25--------3-2-0-----2-5-3-3/7
-----------------------5-------0--5--5----------3-----3-5-7-------3-2----------
5:28                                           5:53
-----------|----------------|--|--------5--7----7-9-7------7-------------7-----
-----------|----------------|--|----------------------9-10---10-9--------------
-22--0-22--|------33-55-77--|x4|------33-55-77---------------------333-55-77---
---------3-|3-5-7----------0|--|3-5-7----------------------------------------0-
                                                           6:16
---------5--7-------794--------------------------------794---------------------
----------------789--------------------------------789-------------------------
-------33-55-7----------33-55-77--3h5/7-333-55-77-----------33-55-77--3h5/7----
-3-5-7--------0-----------------0----------------0-----------------0-----------

---------------------789-|--------------------|--|-------------------|---------
-------25--4----789-9----|--25--4----9-7------|--|-------25--4-------|---------
-0-2-3----5-5------------|3----5-5-7-----10-7-|x3|-0-2-3----5-5------|x3-------
--------------0----------|--------------------|--|--------------0000-|---------

|-------------------------|--|--------------------789--------------------------
|-------25--4----9-7------|--|----------------789-----789--------25--4---------
|-0-2-3----5-5-7-----10-7-|x2|-0-2-3-25--4-----------------0-2-3----5-5-7------
|-------------------------|--|----------5-5-7----------------------------00000-

-------------------------------------------------------------------------------
---------------------------9---------25--4-----9-------------------------------
-------3-2-0-----2-5-3-3/7---------3----5-5-7-7---------3-2-0-----2-5-3-3/7----
-3-5-7-------3-2-------------3-5-7----------------3-5-7-------3-2--------------

Добавлено: 01.01.2014
Вам также может быть интересно:
Другие материалы по этой песне:
  • Аккорды и текст

Страница создана 01.01.2014
http://primanota.ru/focus/birth-chords.htm
Привет, Гость.
Предлагаем пройти революционный курс по гитаре.
Подарок от PrimaNota.Ru, забирай!