PrimaNota.ru - самый крупный в мире бесплатный архив песенных текстов, аккордов, табулатур и нот


Fobia - El Microbito - таба, видео

Регистрация Запомнить меня
Войти через:  Facebook Google Twitter Vk Yandex Mail.ru

Fobia - El Microbito - таба, видео

Печатать
Просмотров: 118
Авторы музыки: Paco Huidobro
Авторы текста: Paco Huidobro
Empiezas asi:

C Am G

Y el verso tambien es así.

Luego

F G 

Luego este riff

-----C----------------- --(B) --------------

E||--------------------|--------------------|
B||-----------1--------|-----------1--------|
G||o-------0-----------|--------0-----------|
D||o----2--------------|-----0--------------|
A||--3-----------------|--2-----------------|
E||--------------------|--------------------|

-----Am---------------- --Cmaj7-------------

E||--------------------|--------------------|
B||-----------1--------|-------------0------|
G||o-------2-----------|---------0----------|
D||o----2--------------|------2-------------|
A||--0-----------------|--3-----------------|
E||--------------------|--------------------|

Luego F G

verso 

Riff

F G

solo

E||--------------------|--------------------|
B||--------------------|--------------------|
G||o-----9---9-10--12--|-10p9-----9--12p9---|
D||o--10---------------|-------10-----------|
A||--------------------|--------------------|
E||--------------------|--------------------|

varias veces luego

E||--------------------|--------------------|
B||--------------------|--------------------|
G||o------9---9-10-12--|-10p9---------------|
D||o--10---------------|-------12-10-9------|
A||--------------------|-----------------12-|
E||--------------------|--------------------|

 

E||--------------------|--------------------|
B||--------------------|--------------------|
G||o-------------------|--------------12p9--|
D||o----9---9-10-12----|--10p9-----9--------|
A||--10----------------|--------10----------|
E||--------------------|--------------------|

E||--------------------|--------------------|
B||--------------------|--------------------|
G||o-----9---9-10--12--|-10p9-----9--12p9---|
D||o--10---------------|-------10-----------|
A||--------------------|--------------------|
E||--------------------|--------------------|

varias veces luego

E||--------------------|--------------------|
B||--------------------|--------------------|
G||o------9---9-10-12--|-10p9---------------|
D||o--10---------------|-------12-10-9------|
A||--------------------|-----------------12-|
E||--------------------|--------------------|

E||--------------------|--------------------|
B||--------------------|--------------------|
G||o-------------------|--------------------|
D||o-----9--9--10--12--|--10p9--------------|
A||--10----------------|--------12--10--9f*-|
E||--------------------|--------------------|

E||--------------------|--------------------|
B||--------------------|--------------------|
G||o-------------------|------9---9--10--12-|
D||o--10-9-------------|--10----------------|
A||-----------10f*-----|--------------------|
E||--------------------|--------------------|

el full lo bajando la cuerda y lo vibras

E||--------------------|--------------------|
B||--------------------|--------------------|
G||o--10p9------9-12p9-|--9--10--12---------|
D||o--------10---------|-------------10f*/--|
A||--------------------|--------------------|
E||--------------------|--------------------|

El acompañamiento es C Am Gvarias veces,

luego checa el cambio y F G y el Riff.

Para acabar repite el verso y acaba en C
Добавлено: 08.03.2012
Другие материалы по этой песне:

Страница создана 08.03.2012
http://primanota.ru/fobia/el-microbito-chords.htm
Привет, Гость.
Предлагаем пройти революционный курс по гитаре.
Подарок от PrimaNota.Ru, забирай!