PrimaNota.ru - самый крупный в мире бесплатный архив песенных текстов, аккордов, табулатур и нот


Fobia - Dos Corazones - бас-таба, видео

Регистрация Запомнить меня
Войти через:  Facebook Google Twitter Vk Yandex Mail.ru

Fobia - Dos Corazones - бас-таба, видео

Печатать
Просмотров: 125
Fobia - 2 Corazones

(0.10)
Siempre que estoy contigo...
g||---------------------------|
d||---------------------------|
a||-------55-55-------44-44---|
e||-22-22-------55-55---------|

(0.51)
g||---------------------6--6--|
d||---------------------------|
a||-------55-55-------44-44---|
e||-22-22-------55-55---------|

Coro
2 corazones laten dentro de mi
g||--4-4-4-4---7-7-7-7-----------|
d||----------------------4-4-4-4-|
a||-2-2-2-2---5-5-5-5------------|
e||---------------------2-2-2-2--|

g||----------|
d||--4-6-7-6-|
a||----------|
e||-2-4-5-4--|

Verso y despues coro

(2.24)
g||-------------------------------------|
d||-----------------------161516-y-sube-|
a||-151415-1211h12----------------------|
e||-------------------------------------|

termina en
g||---|
d||---|
a||---|
e||-2-|
Добавлено: 06.05.2012
Другие материалы по этой песне:

Страница создана 25.04.2012
http://primanota.ru/fobia/dos-corazones-chords.htm
Привет, Гость.
Предлагаем пройти революционный курс по гитаре.
Подарок от PrimaNota.Ru, забирай!