PrimaNota.ru - самый крупный в мире бесплатный архив песенных текстов, аккордов, табулатур и нот


Foals - Bluebird - таба, видео

Регистрация Запомнить меня
Войти через:  Facebook Google Twitter Vk Yandex Mail.ru

Foals - Bluebird - таба, видео

Печатать
Просмотров: 279
Уроки эстрадного вокала в Санкт-Петербурге
Foals - Bluebird

(Figured out from the "CCTV" version (http://www.youtube.com/watch?v=RnxfgUgD5og) so 
this probably differs from the "My Number EP" version)

Continuous synth is a D4 (12th fret on the D)

Jimmy

e|-x---x---x---x---x---x---x---x--|
B|-x---x---x---x---x---x---x---x--|
G|-x---x---x---x---x---x---x---x--| Repeats 2:20
D|-x---9---x---12--x---7---x---5--|
A|-x---x---x---x---x---x---x---x--|
E|-x---x---x---x---x---x---x---x--|


Yannis
(The "b" next to 14 is just a very faint bend, listen out for it)

e|----------------------------------------------------------------------|
B|----------------------------------------------------------------------|
G|-------14-----14------------------------------------------------------|
D|--16------16-----16-14---------------12-14b(X7)-12-11-----------------|
A|-----------------------17-14---12h14------------------12/14---12/14---|
E|----------------------------------------------------------------------|

"I know i've made this journey before..."

e|-----------|
B|-----------|
G|----14-----|
D|-16----16--|
A|-----------|
E|-----------|

"But still it's not what I'd hoped for..."

e|-----------|
B|-----------|
G|-----------|
D|-14h16-----|
A|-----------|
E|-----------|

"I waited the storm way after dark..."

e|-----------|
B|-----------|
G|----14-----|
D|-16--------|
A|-----------|
E|-----------|

"she left your keys lock my heart..."

e|-----------|
B|-----------|
G|----14-----|
D|-16--------|
A|-----------|
E|-----------|

"The closer we get further apart"
(That sixteen *16* slowly gets louder (picked several times))


e|-------------19--19--17--17------------------19--19--17--17------------------|
B|-----------------------------17--17--19--19------------------17--17--15--15--|
G|--*16*-----16--16--16--16--16--16--16--16--16--16--16--16--16--16--16--16----|
D|-----------------------------------------------------------------------------|
A|-----------------------------------------------------------------------------|
E|-----------------------------------------------------------------------------|

e|----19--19--17--17------------------19--19--17--17---------------------------|
B|--------------------17--17--19--19------------------17--17--19---------------|
G|--16--16--16--16--16--16--16--16--16--16--16--16--16--16-------19-18-16------|
D|-----------------------------------------------------------------------------|
A|-----------------------------------------------------------------------------|
E|-----------------------------------------------------------------------------|

"left with me it's left with you
you pull me around sweetly shine on
with milk in my veins sand in my shoes
and I know I'll be there for you"

at this point Jimmy's guitar changes:

e|-x-------x-------x-------x------|
B|-x---12--x---10--x---7---x---7--|
G|-x---11--x---11--x---7---x---7--| Repeats until end
D|-x---9---x---12--x---7---x---5--|
A|-x-------x-------x-------x------|
E|-x-------x-------x-------x------|

While Yannis continues with:

e|-------------19--19--17--17------------------19--19--17--17------------------|
B|-----------------------------17--17--19--19------------------17--17--15--15--|
G|--*16*-----16--16--16--16--16--16--16--16--16--16--16--16--16--16--16--16----|
D|-----------------------------------------------------------------------------|
A|-----------------------------------------------------------------------------|
E|-----------------------------------------------------------------------------|

e|----19--19--17--17------------------19--19--17--17---------------------------|
B|--------------------17--17--19--19------------------17--17--19---------------|
G|--16--16--16--16--16--16--16--16--16--16--16--16--16--16-------19-18-16------|
D|-----------------------------------------------------------------------------|
A|-----------------------------------------------------------------------------|
E|-----------------------------------------------------------------------------|

That continues for a while and then at 3:00 it changes

e|--------------------------------------------------|
B|--19-17------19-17------19-17------19-------------|
G|--------16---------16---------16-------19-18-16---| Repeats until end
D|--------------------------------------------------|
A|--------------------------------------------------|
E|--------------------------------------------------|
Добавлено: 09.07.2013
Другие материалы по этой песне:
  • Аккорды и текст

Страница создана 09.07.2013
http://primanota.ru/foals/bluebird-chords.htm
Привет, Гость.
Предлагаем пройти революционный курс по гитаре.
Подарок от PrimaNota.Ru, забирай!