PrimaNota.ru - самый крупный в мире бесплатный архив песенных текстов, аккордов, табулатур и нот


Fm - Phasors On Stun - таба, видео

Регистрация Запомнить меня
Войти через:  Facebook Google Twitter Vk Yandex Mail.ru

Fm - Phasors On Stun - таба, видео

Печатать
Просмотров: 101
 E -----12-------12-------12-------12---|-----12--------12--------12---|
 B -13----13-13----13-13----13-13----13-|-13-----13-13-----13-13----13-|
 G -------------------------------------|------------------------------|
 D -------------------------------------|------------------------------|
 A -------------------------------------|------------------------------|
 E -------------------------------------|------------------------------|



 E -----14-------14-------14-------14---|-17--15--14----------------------|
 B -15----15-15----15-15----15-15----15-|-------------17--15--13--12------|
 G -------------------------------------|-----------------------------14--|
 D -------------------------------------|---------------------------------|
 A -------------------------------------|---------------------------------|
 E -------------------------------------|---------------------------------|



 E -------------------------------------|----------------------------------|
 B -----10-------10-------10-------10---|----10-------10------10-------10--|
 G -12----12-12----12-12----12-12----12-|12----12-12----12-12---12-12----12|
 D -------------------------------------|----------------------------------|
 A -------------------------------------|----------------------------------|
 E -------------------------------------|----------------------------------|



 E -------------------------------------|---------------------------------|
 B -----10-------10-------10-------10---|---------7-----------------------|
 G -11----11-11----11-11----11-11----11-|-7---9-------9---7---5---4-------|
 D -------------------------------------|-----------------------------7---|
 A -------------------------------------|---------------------------------|
 E -------------------------------------|---------------------------------|



 E --------------------------------|-------------------------------|
 B -----5-------5-------5-------5--|-----5-------5-------5---------|
 G -5-5-----5-5-----5-5-----5-5----|-5-5-----5-5-----5-5-----4--2--|
 D --------------------------------|-------------------------------|
 A --------------------------------|-------------------------------|
 E --------------------------------|-------------------------------|
 

 E --------------------------------|-------------------------------|
 B -----3-------3-------3-------3--|-----3-------3-------3-------3-|
 G -2-2-----2-2-----2-2-----2-2----|-2-2-----2-2-----2-2-----2-2---|
 D --------------------------------|-------------------------------|
 A --------------------------------|-------------------------------|
 E --------------------------------|-------------------------------|



 E ------22-------22-------22-------22-|------22-------22-------22----------|
 B -20-20----20-20----20-20----20-20---|-20-20----20-20----20-20----20------|
 G ------------------------------------|--------------------------------21--|
 D ------------------------------------|------------------------------------|
 A ------------------------------------|------------------------------------|
 E ------------------------------------|------------------------------------|
 

 E ------22-------22-------22-------22-|------22-------22-------22-------22-|
 B -19-19----19-19----19-19----19-19---|-19-19----19-19----19-19----19-19---|
 G ------------------------------------|------------------------------------|
 D ------------------------------------|------------------------------------|
 A ------------------------------------|------------------------------------|
 E ------------------------------------|------------------------------------|


This staff is a keyboard part played during the last measure of the Intro: 

 E --------------------------------|-------|
 B -15--13--12---------------------|-------|
 G -------------14--12--11---------|-------|
 D -------------------------14--12-|-14----|
 A --------------------------------|-------|
 E --------------------------------|-------|
                             

1ST VERSE:

 Em         C       G   D
Hold fast, hold on,    Nothing is a dream

        Em       C      G      D
Yet in changing faster,    It never seems to be here long

 Em       C           G   D
Move on, turn around,    Just can't seem to find it

         Em         C        G     D
Try and reach out, hold out,    I cannot touch the wind, I touch you



                                                                         _
   Em                                C                        G           |
 E ---------------------------------|---------------------------------|   |
 B ---------------8~----------------|---------------8~----------------|   |
 G -7h9-9p7-9p7-9-------------------|-7h9-9p7-9p7-9-------------------|   |
 D ---------------------------------|---------------------------------|   |
 A ---------------------------------|---------------------------------|   |
 E ---------------------------------|---------------------------------|   |
                                                              Yeah        |
                                                                          |2x
   D                                                                      |
 E ---------------------------------|---------------------------------|   |
 B -7-----8-----7---7---------------|-7-----8-----7---7---------------|   |
 G ---7-----7-----------------------|---7-----7-----------------------|   |
 D -----7-----7---7-----------------|-----7-----7---7-----------------|   |
 A ---------------------------------|---------------------------------|   |
 E ---------------------------------|---------------------------------|   |
                                                                         _|

2ND VERSE:

 Em         C        G   D
Reach out, hold out,    Nothing here is real

        Em        C       G     D
Yet in searching farther,    It almost seems to live until it

 Em        C            G   D
Moves on, turns 'round,    Just can't seem to lose it

         Em         C       G     D
Try and hold fast, hold on,    I cannot ride the wind, I ride you


Play FIGURE 1 1x, then:

   Em                               C                          G
 E --------------------------------|-----------------------------------|
 B -8----10----8----10-----8---10--|-8-----10-----8-----10-----8-------|
 G ---9-----9----9-----9-----------|---9------9-----9------9-----9-----|
 D -----9-----9----9-----9---9-----|-----10-----10----10-----10----10--|
 A --------------------------------|-----------------------------------|
 E --------------------------------|-----------------------------------|
   

   D
 E ----------------------------------|---------------------------------|
 B -10----12----10----12----10-------|-12----10----12----10----12--10--|
 G ---11----11----11----11----11--11-|---11----11----11----11----------|
 D -----12----12----12----12----12---|-----12----12----12----12--12----|
 A ----------------------------------|---------------------------------|
 E ----------------------------------|---------------------------------|
    .       .       .       .          .       .       .       .

BREAK:

Synth solo - play chord progression below same as in the verses

 Em         C        G     D            (play progression 2x)

Then:

Gt1 Em
 E|-15-14-12----15-14-12----|-15-14-12----15-14-12----|
 B|----------12----------12-|----------12----------12-|
 G|-------------------------|-------------------------|     
 D|-------------------------|-------------------------|   
 A|-------------------------|-------------------------|
 E|-------------------------|-------------------------|
  | .     .     .     .       .     .     .     .     |
Gt2                                                   |
 E|-19-------19-------19----|-19-------19-------19----|
 B|-------------------------|-------------------------|
 G|-------------------------|-------------------------|     
 D|-------------------------|-------------------------|   
 A|-------------------------|-------------------------|         
 E|-------------------------|-------------------------|


Gt1 D   
 E|-------------------------|-------------------------|
 B|-15~~--------------------|-------------------------|
 G|-------------------------|-14-12----11~------------|
 D|-------------------------|-------------------------|
 A|-------------------------|-------------------------|
 E|-------------------------|-------------------------|
  |                                                   |
Gt2                                                   |
 E|-19-------19-------19----|-------------------------|
 B|----19-15----19-15----19-|-15-19-15-19-19-15-------|
 G|-------------------------|-------------------------|
 D|-------------------------|-------------------------|
 A|-------------------------|-------------------------|
 E|-------------------------|-------------------------|


Gt1 Em
 E|-15-14-12----15-14-12----|-15-14-12----15-14-12----|
 B|----------12----------12-|----------12----------12-|
 G|-------------------------|-------------------------|
 D|-------------------------|-------------------------|
 A|-------------------------|-------------------------|
 E|-------------------------|-------------------------|
  |                                                   |
Gt2                                                   |
 E|-19-------19-------19----|-19-------19-------19----|
 B|-------------------------|-------------------------|
 G|-------------------------|-------------------------|
 D|-------------------------|-------------------------|
 A|-------------------------|-------------------------|
 E|-------------------------|-------------------------|


Gt1 D
 E|-------------------------|-------------------------|
 B|-15~~--------------------|-15tr17-----(15)~--------|
 G|-------------------------|-------------------------|
 D|-------------------------|-------------------------|
 A|-------------------------|-------------------------|
 E|-------------------------|-------------------------|
  |                                                   |
Gt2                                                   |
 E|-19-------19-------19----|----------19-------19----|
 B|----19-15----19-15----19-|-15-19-------19-15-------|
 G|-------------------------|-------------------------|
 D|-------------------------|-------------------------|
 A|-------------------------|-------------------------|
 E|-------------------------|-------------------------|


Gt1 C
 E|----------14----15/17-15-|----------14----15/17-15-|
 B|/17----------------------|-17----------------------|
 G|-------------------------|-------------------------|
 D|-------------------------|-------------------------|
 A|-------------------------|-------------------------|
 E|-------------------------|-------------------------|
  |                                                   |
Gt2                                                   |
 E|-20-------20-------20----|-20-------20-------20----|
 B|-------------------------|-------------------------|
 G|-------------------------|-------------------------|
 D|-------------------------|-------------------------|
 A|-------------------------|-------------------------|
 E|-------------------------|-------------------------|


Gt1 Am   
 E|-17~------15----17-14h15-|-12h14-------------------|
 B|-------------------------|-------15h17-13h15-12h13=|
 G|-------------------------|-------------------------|
 D|-------------------------|-------------------------|
 A|-------------------------|-------------------------|
 E|-------------------------|-------------------------|
  |                                                   |
Gt2                                                   |
 E|-20-17----20-17----20-17-|-20-17----20-17----20-17-|
 B|-------17-------17-------|-------17-------17-------|
 G|-------------------------|-------------------------|
 D|-------------------------|-------------------------|
 A|-------------------------|-------------------------|
 E|-------------------------|-------------------------|


Gt1 C
 E|----------14----15/17-15-|----------14----15/17-15-|
 B|/17----------------------|-17----------------------|
 G|-------------------------|-------------------------|
 D|-------------------------|-------------------------|
 A|-------------------------|-------------------------|
 E|-------------------------|-------------------------|
  |                                                   |
Gt2                                                   |
 E|-20-------20-------20----|-20-------20-------20----|
 B|-------------------------|-------------------------|
 G|-------------------------|-------------------------|
 D|-------------------------|-------------------------|
 A|-------------------------|-------------------------|
 E|-------------------------|-------------------------|


Gt1 C                         D                         Em
 E|-17~~--=-----=-----=---\-|-10~~--=-----=-----=---/-|-12~------------|
 B|-------------------------|-------------------------|----------------|
 G|-------------------------|-------------------------|----------------|
 D|-------------------------|-------------------------|----------------|
 A|-------------------------|-------------------------|----------------|
 E|-------------------------|-------------------------|----------------|
  |                                                                    |
Gt2                                                                    |
 E|-20-17----20-17----20-17-|-22-------22-------22----|----------------|
 B|-------17-------17-------|----22-19----22-19----22-|-17~------------|
 G|-------------------------|-------------------------|----------------|
 D|-------------------------|-------------------------|----------------|
 A|-------------------------|-------------------------|----------------|
 E|-------------------------|-------------------------|----------------|
                                                       (Hold fast...)


3RD VERSE:

 Em         C       G   D
Hold fast, hold on,    Nothing is a dream

           Em       C       G   D
Until you wake up, cry out,    Now it isn't real

         Em           C             G
Now you hold fast -  Nothing is a dream

 D
Hold on - Just can't lose it now

 Em        C                    G
Move on - Turning 'round and 'round

 D
Wake up - You cannot ride the wind



 Em           C             G
Hold fast -  Nothing is a dream

 D
Hold on - Just can't lose it now

 Em        C                    G
Move on - Turning 'round and 'round

 D
Wake up - You cannot ride the wind
Добавлено: 17.06.2012
Другие материалы по этой песне:
  • Аккорды и текст

Страница создана 17.06.2012
http://primanota.ru/fm/phasors-on-stun-chords.htm
Привет, Гость.
Предлагаем пройти революционный курс по гитаре.
Подарок от PrimaNota.Ru, забирай!