PrimaNota.ru - самый крупный в мире бесплатный архив песенных текстов, аккордов, табулатур и нот


Fm Static - My Brain Says Stop But My Heart Says Yes - таба, видео

Регистрация Запомнить меня
Войти через:  Facebook Google Twitter Vk Yandex Mail.ru

Fm Static - My Brain Says Stop But My Heart Says Yes - таба, видео

Печатать
Просмотров: 144
Уроки эстрадного вокала в Санкт-Петербурге
Song: My Brain Says Stop, But My Heart Says Go
Artist: Fm Static
Tabbed By: JAKKRAB1T
Tuning: Drop D

Intro:

Guitar 1:

(distortion)
e|--------------------|
B|--------------------|
G|--------------------|
D|--7---0---7---0--2--|
A|--7---0---7---0--2--|
D|--7---0---7---0--2--|

Guitar 2:

(distortion)
e|----------------------|
B|--5---3--2--5---3--2--|
G|----------------------|
D|----------------------|
A|----------------------|
D|----------------------|

Verse 1:

(play twice with acoustic, then twice with distortion)
e|--------------------------------------|
B|--------------------------------------|
G|--------------------------------------|
D|--0-xx-0-0-7-xx-xxx-7-xxx-x-5-xx-xxx--|
A|--0-xx-0-0-7-xx-xxx-7-xxx-x-5-xx-xxx--|
D|--0-xx-0-0-7-xx-xxx-7-xxx-x-5-xx-xxx--|

then:
e|-----------|
B|-----------|
G|-----------|
D|--0-x-0-0--|
A|--0-x-0-0--|
D|--0-x-0-0--|

Repeat Intro
Repeat Verse 1

Bridge:

(2x distorted)
e|-----------------------------|
B|-----------------------------|
G|-----------------------------|
D|--5h7-7-7--5h7-7-7--5h7-7-7--|
A|--5h7-7-7--5h7-7-7--5h7-7-7--|
D|--5h7-7-7--5h7-7-7--5h7-7-7--|

then:
e|-------|
B|-------|
G|-------|
D|--xxx--|
A|--xxx--|
D|--xxx--|

Solo:

(distortion)
e|--7--5--7--7h9--7--5--5h7--5-5--7--7h9--|
B|----------------------------------------|
G|----------------------------------------|
D|----------------------------------------|
A|----------------------------------------|
D|----------------------------------------|

e|--7--5--7--5-5--5--5--7--7h9--7--5--(11)-9-7--9-7-5--7-5--3-5-3-2-0--|
B|---------------------------------------------------------------------|
G|---------------------------------------------------------------------|
D|---------------------------------------------------------------------|
A|---------------------------------------------------------------------|
D|---------------------------------------------------------------------|

Verse 2:

(distortion 2x)
e|--------------------------------|
B|--------------------------------|
G|--------------------------------|
D|--5h7-7-7--5h7-7-7--5h7-7-7-xxx-|
A|--5h7-7-7--5h7-7-7--5h7-7-7-xxx-|
D|--5h7-7-7--5h7-7-7--5h7-7-7-xxx-|

e|--------------------------------|
B|--------------------------------|
G|--------------------------------|
D|--5h7-7-7--5h7-7-7--5h7-7-7-777-|
A|--5h7-7-7--5h7-7-7--5h7-7-7-777-|
D|--5h7-7-7--5h7-7-7--5h7-7-7-777-|

Repeat Intro

Repeat:

Guitar 1: Intro
Guitar 2: Solo

Repeat Verse 2





Добавлено: 13.05.2012
Другие материалы по этой песне:
  • Аккорды и текст

Страница создана 13.05.2012
http://primanota.ru/fm-static/my-brain-says-stop-but-my-heart-says-yes-chords.htm
Привет, Гость.
Предлагаем пройти революционный курс по гитаре.
Подарок от PrimaNota.Ru, забирай!