PrimaNota.ru - самый крупный в мире бесплатный архив песенных текстов, аккордов, табулатур и нот


Fm Static - Her Fathers Song - таба, видео

Регистрация Запомнить меня
Войти через:  Facebook Google Twitter Vk Yandex Mail.ru

Fm Static - Her Fathers Song - таба, видео

Печатать
Просмотров: 164
-----------------------------------------------------------------------------
                             Her Father's Song - FM Static
-----------------------------------------------------------------------------
Tabbed by:Luke
Email: I_am_Billiam@yahoo.com

Guitar and Bass Parts
R beneath a measure means rhythm.

Tuning:Standard

Intro/verse(Clean):
         C                     Am                  G
e|-------------------|-------------------|-------------------|
B|-------------------|-------------------|-------------------|
G|--5-5-5-5-5-5-5-5--|--5-5-5-5-5-5-5-5--|--5-5-5-5-5-5-5-5--|
D|-------------------|-------------------|-------------------|
A|-3-3-3-3-3-3-3-3---|-0-0-0-0-0-0-0-0---|-------------------|
E|-------------------|-------------------|-3-3-3-3-3-3-3-3---|
R: They're all sixteenth notes. 
         F
e|-------------------|
B|-------------------|
G|--5-5-5-5-5-5-5-5--|
D|-------------------|
A|-------------------|
E|-1-1-1-1-3-3-3-3---|x2

Bass comes in on second time with this:
G|-------------------|----------------|
D|-------------------|----------------|
A|-------------------|----------------|
E|-8---8---8---8-10--|-5---5---5---5--|
R: 1   2   3   4 +     1   2   3   4   

G|----------------|---------------|
D|----------------|---------------|
A|----------------|---------------|
E|-3---3---3---3--|-1---1---3---3-|
R: 1   2   3   4    1   2   3   4

Prechorus(Clean):
     C/F        C/G         C       C/A      C/F       C/G
e|---------|----------|-----------|------|---------|---------|
B|---------|----------|-----------|------|---------|---------|
G|-----0---|-----0----|-----0-5-4-|-2~-0~|-----0---|-------0-|
D|---0---5~|---0---5~-|---5-------|------|---0---5~|-----0---|
A|-3-------|-2--------|-3---------|------|-3-------|-2-3-----|
E|---------|----------|-----------|------|---------|---------|
R:It's tricky, listen to the song. ^^This measure is just as 
long as the others, the notes are just held longer. Once again,
listen to the song. Email me with questions.

Bass:
G|---|
D|---|
A|---|
E|-3-| This is the last beat of the last measure.

Chorus:
Guitar 1(Clean):
         C                     Am                  G
e|-------------------|-------------------|-------------------|
B|-------------------|-------------------|-------------------|
G|--5-5-5-5-5-5-5-5--|--5-5-5-5-5-5-5-5--|--5-5-5-5-5-5-5-5--|
D|-------------------|-------------------|-------------------|
A|-3-3-3-3-3-3-3-3---|-0-0-0-0-0-0-0-0---|-------------------|
E|-------------------|-------------------|-3-3-3-3-3-3-3-3---|
R: Sixteenth notes.
         F
e|-------------------|
B|-------------------|
G|--5-5-5-5-5-5-5-5--|
D|-------------------|
A|-------------------|
E|-1-1-1-1-3-3-3-3---|x2

Guitar 2(Distortion):
e|-----------------|-----------------|
B|-----------------|-----------------|
G|-5-5-5-5-5-5-5-5-|-----------------|
D|-5-5-5-5-5-5-5-5-|-7-7-7-7-7-7-7-7-|
A|-3-3-3-3-3-3-3-3-|-7-7-7-7-7-7-7-7-|
E|-----------------|-5-5-5-5-5-5-5-5-|
R: 1 + 2 + 3 + 4 +   1 + 2 + 3 + 4 +

e|-----------------|-----------------|
B|-----------------|-----------------|
G|-----------------|-----------------|
D|-5-5-5-5-5-5-5-5-|-3-3-3-3-5-5-5-5-|
A|-5-5-5-5-5-5-5-5-|-3-3-3-3-5-5-5-5-|
E|-3-3-3-3-3-3-3-3-|-1-1-1-1-3-3-3-3-|x2 On second time only hit
R: 1 + 2 + 3 + 4 +   1 + 2 + 3 + 4 +     first beat of last measure.

Bass:
G|-----------------|-----------------|
D|-----------------|-----------------|
A|-----------------|-----------------|
E|-8-8-8-8-8-8-8-8-|-5-5-5-5-5-5-5-5-|
R: 1 + 2 + 3 + 4 +   1 + 2 + 3 + 4 + 

G|-----------------|-----------------|
D|-----------------|-----------------|
A|-----------------|-----------------|
E|-3-3-3-3-3-3-3-3-|-1-1-1-1-3-3-3-3-|x2 On second time only hit
R: 1 + 2 + 3 + 4 +   1 + 2 + 3 + 4 +     first beat of last measure.

Interlude:
Play verse riff once with this organ(or whatever it is) part:
e|-----------------|-----------------|
B|-------------5---|-----------------|
G|-5-------7-------|-4-------2-------|
D|-----------------|-----------------|
A|-----------------|-----------------|
E|-----------------|-----------------|
R: 1 + 2 + 3 + 4 +   1 + 2 + 3 + 4 +  

e|-----------------|-----------------|
B|-------------5---|-----------------|
G|-5-------7-------|-4-------2-------|
D|-----------------|-----------------|
A|-----------------|-----------------|
E|-----------------|-----------------|
R: 1 + 2 + 3 + 4 +   1 + 2 + 3 + 4 +  

Verse 2:
Same as first for bass and guitar, but bass plays both times
through instead of just the first.

Prechorus 2: 
Same as first prechorus.

Chorus 2:
Same as first chorus.

Outro:
Play verse riff twice with organ part.
Добавлено: 15.06.2012
Другие материалы по этой песне:

Страница создана 09.05.2012
http://primanota.ru/fm-static/her-fathers-song-chords.htm
Привет, Гость.
Предлагаем пройти революционный курс по гитаре.
Подарок от PrimaNota.Ru, забирай!