PrimaNota.ru - самый крупный в мире бесплатный архив песенных текстов, аккордов, табулатур и нот


Fm Static - Girl Of The Year - текст песни, таба, бас-таба, видео

Регистрация Запомнить меня
Войти через:  Facebook Google Twitter Vk Yandex Mail.ru

Fm Static - Girl Of The Year - текст песни, таба, бас-таба, видео

Печатать
Просмотров: 189
-------------------------------------------------------------------------------
			     Girl of The Year – Fm Static
-------------------------------------------------------------------------------
Tabbed by: Jed (Laylow)
Email: firesidewing@hotmail.com

Tuning: E A D G B e

Guitar I  (E A D G B e)
Guitar II (E A D G B e)


Intro: Guitar 2
verse
e||-------------------------||
B||-------------------------||
G||-----7-----------5-------||
D||---7-------7---5-------5-||    x4
A||-5-------7---3-------5---||
E||-------5-----------3-----||

Guitar 1
e||----------------|----------------|----------------|----------------||
B||----------------|----------------|----------------|----------------||
G||-7-7-----5-5----|-7-7-----5-5----|-7-7-----5-5----|-7-7-----5-5----||
D||-7-7-7-7-5-5-5--|-7-7-7-7-5-5-5--|-7-7-7-7-5-5-5--|-7-7-7-7-5-5-5--||
A||-5-5-7-7-3-3-5--|-5-5-7-7-3-3-5--|-5-5-7-7-3-3-5--|-5-5-7-7-3-3-5--||
E||-----5-5-----3--|-----5-5-----3--|-----5-5-----3--|-----5-5-----3--||


Pre-Chorus: Guitar 1
e||-------------------------------||
B||-------------------------------||
G||-5-5-5-5-5-5-5-5-2-2-2-2--2-2--||
D||-5-5-5-5-5-5-5-5-2-2-2-2--2-2--||
A||-3-3-3-3-3-3-3-3-0-0-0-0--0-0--||
E||-------------------------------||
^|| * * * * * * * * * * * *  * *


Chorus:
   Guitar 1
e||---------------------------------------------|
B||---------------------------------------------|
G||-7-7-----------------------------------------|
D||-7-7-7-7-5-5-5-2-2-2-5-5-5-2-2-2-5-5-5-7p-7p-|
A||-5-5-7-7-5-5-5-2-2-2-5-5-5-2-2-2-5-5-5-7p-7p-|
E||-----5-5-3-3-3-0-0-0-3-3-3-0-0-0-3-3-3-5p-5p-|
 |
 | Guitar 2
e||--------------------|------------------------|
B||--------------------|-8-8-7------------------|
G||--------------------|-------9--7-7-7-9-9-----|
D||--------------------|------------------------|
A||--------------------|------------------------|
E||--------------------|------------------------|

   Guitar 1
e|--------------------------|--------------------------------------||
B|--------------------------|--------------------------------------||
G|-7p-7p--------------------|--------------------------------------||
D|-7p-7p-7p-7p-5-5-5-2--2-2-|-5-5-5-5-5-5-5-5-7-7-7-7-7-7-7-7------||
A|-5p-5p-7p-7p-5-5-5-2--2-2-|-5-5-5-5-5-5-5-5-7-7-7-7-7-7-7-7------||
E|-------5p-5p-3-3-3-0--0-0-|-3-3-3-3-3-3-3-3-5-5-5-5-5-5-5-5------||
 |
 | Guitar 2
e|--------------------------|----------------------------------10b-||
B|--------------------------|-8--7h8-7h8-7-------------------------||
G|--------------------------|--------------9-7-9~------------------||
D|--------------------------|--------------------------------------||
A|--------------------------|--------------------------------------||
E|--------------------------|--------------------------------------||



verse
   Guitar 1
e||-------------------------|-------------------------|
B||-------------------------|-------------------------|
G||-----7-----------5-------|-----7-----------5-------|   
D||---7-------7---5-------5-|---7-------7---5-------5-|
A||-5-------7---3-------5---|-5-------7---3-------5---|
E||-------5-----------3-----|-------5-----------3-----|

   Guitar 1
e|-------------------------|-------------------------||
B|-------------------------|-------------------------||
G|-----7-----------5-------|-----7-----------5-------||  
D|---7-------7---5-------5-|---7-------7---5-------5-||
A|-5-------7---3-------5---|-5-------7---3-------5---||
E|-------5-----------3-----|-------5-----------3-----||
 |
 | Guitar 2
e|---------------------------------------------------||
B|-7-7-10-10-7-10~--7--------7-7h8p7-7-7-------------||
G|-----------------------------------------7-7---7---||
D|---------------------------------------9-----9-----||
A|---------------------------------------------------||
E|---------------------------------------------------||

   Guitar 1
e||----------------|----------------|----------------|----------------||
B||----------------|----------------|----------------|----------------||
G||-7-7-----5-5----|-7-7-----5-5----|-7-7-----5-5----|-7-7-----5-5----||
D||-7-7-7-7-5-5-5--|-7-7-7-7-5-5-5--|-7-7-7-7-5-5-5--|-7-7-7-7-5-5-5--||
A||-5-5-7-7-3-3-5--|-5-5-7-7-3-3-5--|-5-5-7-7-3-3-5--|-5-5-7-7-3-3-5--||
E||-----5-5-----3--|-----5-5-----3--|-----5-5-----3--|-----5-5-----3--||


Pre-Chorus: Guitar 1
e||-------------------------------||
B||-------------------------------||
G||-5-5-5-5-5-5-5-5-2-2-2-2--2-2--||
D||-5-5-5-5-5-5-5-5-2-2-2-2--2-2--||
A||-3-3-3-3-3-3-3-3-0-0-0-0--0-0--||
E||-------------------------------||
^|| * * * * * * * * * * * *  * *


Chorus:
   Guitar 1
e||---------------------------------------------|
B||---------------------------------------------|
G||-7-7-----------------------------------------|
D||-7-7-7-7-5-5-5-2-2-2-5-5-5-2-2-2-5-5-5-7p-7p-|
A||-5-5-7-7-5-5-5-2-2-2-5-5-5-2-2-2-5-5-5-7p-7p-|
E||-----5-5-3-3-3-0-0-0-3-3-3-0-0-0-3-3-3-5p-5p-|
 |
 | Guitar 2
e||--------------------|------------------------|
B||--------------------|-8-8-7------------------|
G||--------------------|-------9--7-7-7-9-9-----|
D||--------------------|------------------------|
A||--------------------|------------------------|
E||--------------------|------------------------|

   Guitar 1
e|--------------------------|--------------------------------------||
B|--------------------------|--------------------------------------||
G|-7p-7p--------------------|--------------------------------------||
D|-7p-7p-7p-7p-5-5-5-2--2-2-|-5-5-5-5-5-5-5-5-7-7-7-7-7-7-7-7------||
A|-5p-5p-7p-7p-5-5-5-2--2-2-|-5-5-5-5-5-5-5-5-7-7-7-7-7-7-7-7------||
E|-------5p-5p-3-3-3-0--0-0-|-3-3-3-3-3-3-3-3-5-5-5-5-5-5-5-5------||
 |
 | Guitar 2
e|--------------------------|----------------------------------10b-||
B|--------------------------|-8--7h8-7h8-7-------------------------||
G|--------------------------|--------------9-7-9~------------------||
D|--------------------------|--------------------------------------||
A|--------------------------|--------------------------------------||
E|--------------------------|--------------------------------------||
                                                      (end of chorus)


    Guitar 1
e||--------------------------------|----------------------------------|
B||--------------------------------|----------------------------------|
G||-7-7-7-7------------------------|-7-7-7-7--------------------------|
D||-7-7-7-7-7-7-7-7-5-5-5-5--5-5-5-|-7-7-7-7-7-7-7-7-5-5-5-5-5--5-5-5-|
A||-5-5-5-5-7-7-7-7-5-5-5-5--5-5-5-|-5-5-5-5-7-7-7-7-5-5-5-5-5--5-5-5-|
E||---------5-5-5-5-3-3-3-3--3-3-3-|---------5-5-5-5-3-3-3—3-3--3-3-3-|
^|| * * * * * * * * * * * *  * * *   * * * * * * * * * * * * *  * * *

    Guitar 1
e|--------------------------------|----------------------------------||
B|--------------------------------|----------------------------------||
G|-7-7-7-7------------------------|-7-7-7-7--------------------------||
D|-7-7-7-7-7-7-7-7-5-5-5-5--5-5-5-|-7-7-7-7-7-7-7-7-5-5-5-5-5--5-5-5-||
A|-5-5-5-5-7-7-7-7-5-5-5-5--5-5-5-|-5-5-5-5-7-7-7-7-5-5-5-5-5--5-5-5-||
E|---------5-5-5-5-3-3-3-3--3-3-3-|---------5-5-5-5-3-3-3—3-3--3-3-3-||
^| * * * * * * * * * * * *  * * *   * * * * * * * * * * * * *  * * *

   Guitar 1					
e||--------------------------------|----------------------------------|
B||--------------------------------|----------------------------------|
G||-7-7-7-7------------------------|-7-7-7-7--------------------------|
D||-7-7-7-7-7-7-7-7-5-5-5-5--5-5-5-|-7-7-7-7-7-7-7-7-5-5-5-5-5--5-5-5-| 
A||-5-5-5-5-7-7-7-7-5-5-5-5--5-5-5-|-5-5-5-5-7-7-7-7-5-5-5-5-5--5-5-5-|
E||---------5-5-5-5-3-3-3-3--3-3-3-|---------5-5-5-5-3-3-3—3-3--3-3-3-|

   Guitar 1					
e||--------------------------------|----------------------------------|
B||--------------------------------|----------------------------------|
G||-7-7-7-7------------------------|-7-7-7-7--------------------------|
D||-7-7-7-7-7-7-7-7-5-5-5-5--5-5-5-|-7-7-7-7-7-7-7-7-5-5-5-5-5--5-5-5-| 
A||-5-5-5-5-7-7-7-7-5-5-5-5--5-5-5-|-5-5-5-5-7-7-7-7-5-5-5-5-5--5-5-5-|
E||---------5-5-5-5-3-3-3-3--3-3-3-|---------5-5-5-5-3-3-3—3-3--3-3-3-|


   Guitar 1
e||--------------------------------|----------------------------------|
B||--------------------------------|----------------------------------|
G||-7-7-7-7------------------------|-7-7-7-7--------------------------|
D||-7-7-7-7-7-7-7-7-5-5-5-5--5-5-5-|-7-7-7-7-7-7-7-7-5-5-5-5-5--5-5-5-|
A||-5-5-5-5-7-7-7-7-5-5-5-5--5-5-5-|-5-5-5-5-7-7-7-7-5-5-5-5-5--5-5-5-|
E||---------5-5-5-5-3-3-3-3--3-3-3-|---------5-5-5-5-3-3-3—3-3--3-3-3-|
 |
 | Guitar 2
e||-------------------------|-------------------------|
B||-----------7---7-8-7-----|---------7---7-7-8-7-----|
G||---7-7-7-9---9-------7-9-|-7-7-7-9---9---------7-9-|
D||-------------------------|-------------------------|
A||-------------------------|-------------------------|
E||-------------------------|-------------------------|
 
 Guitar 1
e|--------------------------------|----------------------------------||
B|--------------------------------|----------------------------------||
G|-7-7-7-7------------------------|-7-7-7-7--------------------------||
D|-7-7-7-7-7-7-7-7-5-5-5-5--5-5-5-|-7-7-7-7-7-7-7-7-5-5-5-5-5--5-5-5-||
A|-5-5-5-5-7-7-7-7-5-5-5-5--5-5-5-|-5-5-5-5-7-7-7-7-5-5-5-5-5--5-5-5-||
E|---------5-5-5-5-3-3-3-3--3-3-3-|---------5-5-5-5-3-3-3—3-3--3-3-3-||
 |
 |Guitar 2
e|-----------------------|---------------------------||
B|---------7---7-8-7-----|---------7---7-7-8-7-------||
G|-7-7-7-9---9-------7-9-|-7-7-7-9---9---------7-9-7-||
D|-----------------------|---------------------------||
A|-----------------------|---------------------------||
E|-----------------------|---------------------------||

Chorus:
   Guitar 1
e||---------------------------------------------|
B||---------------------------------------------|
G||-7-7-----------------------------------------|
D||-7-7-7-7-5-5-5-2-2-2-5-5-5-2-2-2-5-5-5-7p-7p-|
A||-5-5-7-7-5-5-5-2-2-2-5-5-5-2-2-2-5-5-5-7p-7p-|
E||-----5-5-3-3-3-0-0-0-3-3-3-0-0-0-3-3-3-5p-5p-|
 |
 | Guitar 2
e||--------------------|------------------------|
B||--------------------|-8-8-7------------------|
G||--------------------|-------9--7-7-7-9-9-----|
D||--------------------|------------------------|
A||--------------------|------------------------|
E||--------------------|------------------------|

   Guitar 1
e|----------------------|--------------------|
B|----------------------|--------------------|
G|-7p-7p----------------|-7-7----------------|
D|-7p-7p-7p-7p-5p-5p--2-|-7-7-7-7-5-5-2--2-2-|
A|-5p-5p-7p-7p-5p-5p--2-|-5-5-7-7-5-5-2--2-2-|
E|-------5p-5p-3p-3p--0-|-----5-5-3-3-0--0-0-|
 
   Guitar 1
e||---------------------|--------------------------|
B||---------------------|--------------------------|
G||-7-7-----------------|-7-7----------------------|
D||-7-7-7-7-5-5—-2--2-2-|-7-7-7-7-5-5-2--2-2-2-2-2-|
A||-5-5-7-7-5-5--2--2-2-|-5-5-7-7-5-5-2--2-2-2-2-2-|
E||-----5-5-3-3--0—-0-0-|-----5-5-3-3-0--0-0-0-0-0-|
|
| Guitar 2
e||---------------------|--------------------------7b-7b-7b-|
B||---------------------|-----------------------------------|
G||---------------------|-----------------------------------|
D||---------------------|-----------------------------------|
A||---------------------|-----------------------------------|
E||---------------------|-----------------------------------|

   Guitar 1
e|--------------------------|-------------------------||
B|--------------------------|-------------------------||
G|-7p-7p--------------------|-------------------------||
D|-7p-7p-7p-7p-5-5—5-2--2-2-|-5-5-5-5-5-5-5-5-7-7-7-7-||
A|-5p-5p-7p-7p-5-5-5-2--2-2-|-5-5-5-5-5-5-5-5-7-7-7-7-||
E|-------5p-5p-3-3-3-0—-0-0-|-3-3-3-3-3-3-3-3-5-5-5-5-||
|
| Guitar 2
e|--------------------------|-------------------------||
B|--------------------------|-8--7h8--7h8--7----------||
G|--------------------------|----------------9-7-9~---||
D|--------------------------|-------------------------||
A|--------------------------|-------------------------||
E|--------------------------|-------------------------||
                                           (end of song)


 

| /  slide up
| \  slide down
| h  hammer-on
| p  pull-off
| ~  vibrato
| +  harmonic
| x  Mute note
===============================================================================

Добавлено: 12.04.2012
Другие материалы по этой песне:
  • Аккорды и текст

Страница создана 05.04.2012
http://primanota.ru/fm-static/girl-of-the-year-chords.htm
Привет, Гость.
Предлагаем пройти революционный курс по гитаре.
Подарок от PrimaNota.Ru, забирай!