PrimaNota.ru - самый крупный в мире бесплатный архив песенных текстов, аккордов, табулатур и нот


Fm Static - Boy Meets Girl - бас-таба, видео

Регистрация Запомнить меня
Войти через:  Facebook Google Twitter Vk Yandex Mail.ru

Fm Static - Boy Meets Girl - бас-таба, видео

Печатать
Просмотров: 140
Boy Meets Girl 
by Fm Static
tabbed by Ferdz Tobats

intro/verse?pre-chorus:

G|---------------------------------|
D|---------------------------------|
A|---------------------------------|
E|------1-33--1--33--1-3-5-1-------|
B|--33-----------------------------|


G|---------------------------------|
D|---------------------------------|
A|---------------------------5-----|
E|------1-33--1--33--1-5-3---------|
B|--33-----------------------------|


G|---------------------------------|
D|---------------------------------|
A|---------------------------------|
E|------1-33--1--33--1-3-5-3-------|
B|--3------------------------------|


G|---------------------------------|
D|---------------------------------|
A|---------------------------------|
E|------1-33--1--33--(PAUSE)-------|
B|--3------------------------------|

chorus:
G|----------------------------------------|
D|----------------------------------------|
A|----------------------------------------|
E|-----------1--1-1--1--1-1--3-33-3-33----|
B|-3-33-3-33------------------------------|

G|---------------------------------|
D|---------------------------------|
A|------------3---5----------------| 2x
E|-----1-3-5---------1-------------|
B|--3------------------------------|

G|----------------------------------------|
D|----------------------------------------|
A|----------------------------------------|
E|-----------1--1-1--1--1-1--3-33-3-33----|
B|-3-33-3-33------------------------------|

G|---------------------------------|
D|---------------------------------|
A|------------3---5----------------| 2x
E|-----1-3-5---------1-------------|
B|--3------------------------------|

intro/verseII/pre-chorus

chorus:
G|----------------------------------------|
D|----------------------------------------|
A|----------------------------------------|
E|-----------1--1-1--1--1-1--3-33-3-33----|
B|-3-33-3-33------------------------------|

G|---------------------------------|
D|---------------------------------|
A|------------3---5----------------| 2x
E|-----1-3-5---------1-------------|
B|--3------------------------------|

G|----------------------------------------|
D|----------------------------------------|
A|----------------------------------------|
E|-----------1--1-1--1--1-1--3-33-3-33----|
B|-3-33-3-33------------------------------|

G|---------------------------------|
D|---------------------------------|
A|------------3---5----------------| 
E|-----1-3-5---------1-------------|
B|--3------------------------------|

G|---------------------------------|
D|---------------------------------|
A|------------3---5-----5----------| 
E|-----1-3-5---------1-------------|
B|--3------------------------------|

instrumental:

G|---------------------------------|
D|---------------------------------|
A|---------------------------------|
E|-------------1-1-3-1-3-1-3-5-3---|
B|-3-1-3-1-3-3---------------------|


G|--------------------------------------|
D|--------------------------------------|
A|--------------------------------------|
E|-----------------1-1-3-1-3-1-3-5-1-1--|
B|---1-3-1-3-1-3-3----------------------|


chorus:


chorus:
G|----------------------------------------|
D|----------------------------------------|
A|----------------------------------------|
E|-----------1--1-1--1--1-1--3-33-3-33----|
B|-3-33-3-33------------------------------|

G|---------------------------------|
D|---------------------------------|
A|------------3---5----------------| 2x
E|-----1-3-5---------1-------------|
B|--3------------------------------|

G|----------------------------------------|
D|----------------------------------------|
A|----------------------------------------|
E|-----------1--1-1--1--1-1--3-33-3-33----|
B|-3-33-3-33------------------------------|

G|---------------------------------|
D|---------------------------------|
A|------------3---5----------------| 2x
E|-----1-3-5---------1-------------|
B|--3------------------------------|

intro/verseII/pre-chorus

chorus:
G|----------------------------------------|
D|----------------------------------------|
A|----------------------------------------|
E|-----------1--1-1--1--1-1--3-33-3-33----|
B|-3-33-3-33------------------------------|

G|---------------------------------|
D|---------------------------------|
A|------------3---5----------------| 2x
E|-----1-3-5---------1-------------|
B|--3------------------------------|

G|----------------------------------------|
D|----------------------------------------|
A|----------------------------------------|
E|-----------1--1-1--1--1-1--3-33-3-33----|
B|-3-33-3-33------------------------------|

G|---------------------------------|
D|---------------------------------|
A|------------3---5----------------| 
E|-----1-3-5---------1-------------|
B|--3------------------------------|

G|---------------------------------|
D|---------------------------------|
A|------------3--------------------| 
E|-----1-3-5------1----------------|
B|--3-----------------3------------|
Добавлено: 25.03.2012
Другие материалы по этой песне:
  • Аккорды и текст

Страница создана 25.03.2012
http://primanota.ru/fm-static/boy-meets-girl-chords.htm
Привет, Гость.
Предлагаем пройти революционный курс по гитаре.
Подарок от PrimaNota.Ru, забирай!