PrimaNota.ru - самый крупный в мире бесплатный архив песенных текстов, аккордов, табулатур и нот


Flys - Love And A Molotov Cocktail - аккорды и текст, видео

Регистрация Запомнить меня
Войти через:  Facebook Google Twitter Vk Yandex Mail.ru

Flys - Love And A Molotov Cocktail - аккорды и текст, видео

Печатать
Просмотров: 109
Love And A Molotov Cocktail
Flys
The Flys are an early punk band with a sound similar to 999 and the buzzcocks,
they're CD's are hard to find but this song can be found on the punk: the worst
of total anarchy compilation albums

-----------------------------------------------------------------
Love and A Molotov Cocktail - Flys
-----------------------------------------------------------------
Tabbed by: Dillon
Email: Angelic_oioi_upstart@yahoo.com

Tuning:Standard

O.K. This tab is going to go a little different than you're used to.
This song is played in full chords (except for the riff) so it is
easier to just list all the chords used and then put them in the order
played for the verse and the chorus. The list of chords and how to 
play them is at the bottom of this document. They're all barre chords.

Intro and Main Riff:
e|---------------------------------------------------------------|
B|---------------------------------------------------------------|
G|----4------6---------------------------------------------------|
D|----2----0-4-0-------------------------------------------------|
A|---------------------------------------------------------------|
E|-030--030------------------------------------------------------|


For the verse each chord is strummed string by string downstroke and
only once each then it rests for a few beats and then plays the next
chord.

Verse:
E B D A (Play 4 times)

For the chorus the chords aren't strummed slowly like the verse.
You can figure out the strumming pattern and how many times to play 
the chords yourself, its really easy.

Chorus:
E F# G D A


   CHORDS USED:
   E   B   D   A   F#  G
e|-0-|-2-|-5-|-5-|-2-|-3-|
B|-0-|-4-|-7-|-5-|-2-|-3-|
G|-1-|-4-|-7-|-6-|-3-|-4-|
D|-2-|-4-|-7-|-7-|-4-|-5-|
A|-2-|-2-|-5-|-7-|-4-|-5-|
E|-0-|-2-|-5-|-5-|-2-|-3-|
Добавлено: 17.07.2012
Другие материалы по этой песне:
  • Аккорды и текст

Страница создана 17.07.2012
http://primanota.ru/flys/love-and-a-molotov-cocktail-chords.htm
Привет, Гость.
Предлагаем пройти революционный курс по гитаре.
Подарок от PrimaNota.Ru, забирай!