PrimaNota.ru - самый крупный в мире бесплатный архив песенных текстов, аккордов, табулатур и нот


Flylo Ft Krayzie Bone - Meditation Medication - бас-таба, видео

Регистрация Запомнить меня
Войти через:  Facebook Google Twitter Vk Yandex Mail.ru

Flylo Ft Krayzie Bone - Meditation Medication - бас-таба, видео

Печатать
Просмотров: 26
Уроки эстрадного вокала в Санкт-Петербурге
Hey everyone, I spent some time on Ableton tonight with my 6 string bass (BEADGc),This is around the end of the
song, the relaxed bass solo part. Bass is not my main instrument
but please do give me some input and corrections if you feel necessary. Enjoy!

c|--------11--12--------------19-16--------------------
G|------------------------17--------17----17-----------
D|-7------------------15---------------15--------------
A|---7--------------0----------------------------------
E|-----5-----------------------------------------------
B|-----------------------------------------------------

c|--------11--12-----------19--------------------------
G|----------------------17----17--14----14-------------
D|-7----------------15---------------15----------------
A|---7-----------0-------------------------------------
E|-----5-----------------------------------------------
B|-----------------------------------------------------
Добавлено: 14.06.2016
Другие материалы по этой песне:
  • Аккорды и текст

Страница создана 14.06.2016
http://primanota.ru/flylo-ft-krayzie-bone/meditation-medication-chords.htm
Привет, Гость.
Предлагаем пройти революционный курс по гитаре.
Подарок от PrimaNota.Ru, забирай!