PrimaNota.ru - самый крупный в мире бесплатный архив песенных текстов, аккордов, табулатур и нот


Flyleaf - Something I Can Never Have - таба, видео

Регистрация Запомнить меня
Войти через:  Facebook Google Twitter Vk Yandex Mail.ru

Flyleaf - Something I Can Never Have - таба, видео

Печатать
Просмотров: 168
Авторы музыки: Trent Reznor

SOMETHING I CAN NEVER HAVE [Nine Inch Nails Cover] - Flyleaf
Tabbed by: silver_and_cold
Email: deranged_smiley_faces@hotmail.com

heya if it's confusing to you or you have some corrections please comment. ^^

Tuning: Drop D [e b g d a d]

Intro
Guitar 1: 
e|------------------------------------------------------------|
B|------------------------------------------------------------|
G|--------12----12----12----12----12----12----12-13-12--------|[Repeat throughout the song]
D|-----10----10----10----10----10----10----10-----------------|
A|------------------------------------------------------------|
D|------------------------------------------------------------|

Guitar 2: 
e|-------------------------------|
B|-------------------6p5---------|
G|----5~---7----3----------------|Play At: 0:11, 0:55, 1:40
D|--5-------------3h5------------|
A|-------------------------------|
D|-------------------------------|

Play the 'B[string]:6p5' part at the same time as the 'G[string]:13-12' part [in the intro riff].
It also plays by itself at some parts.

Chorus: 
Guitar 2 [Guitar 1 still plays the Intro part in this]
e|------------------------------|
B|------------------------------|
G|----------9-----10------------|
D|--10------9-x8--10-x8---------|
A|--10-x16--7------8------------|
D|--10--------------------------|


At 3:44 [that's before the third chorus]
e|--------------------|
B|--------------------|
G|--12-12-12-12-------|
D|--x--x--x--x--------|
A|--10-10-10-10-------|
D|--------------------|


Outro
[theres also some other riff playing here that i havent tabbed out yet..]
Guitar 2:
e|----------------------|
B|----------------------|
G|----------------------| x2
D|--8------3------------|
A|--8-x16--3-x16--------|
D|--8------3------------|

end in: [for Guitar 2]
e|-------|
B|-------|
G|-------|
D|--3~---|
A|--3~---|
D|--3~---|

Guitar 1 fades out [playing the intro riff]


Order:
Intro
Verse [Guitar 1 mostly plays by itself]
Pre Chorus: Play the Chorus part
Chorus x2
Verse 2 [Guitar 1 mostly plays by itself here as well]
Chorus x4
Coda [like Verse]
Chorus x4
Outro
Добавлено: 11.03.2012
Другие материалы по этой песне:

Страница создана 11.03.2012
http://primanota.ru/flyleaf/something-i-can-never-have-chords.htm
Привет, Гость.
Предлагаем пройти революционный курс по гитаре.
Подарок от PrimaNota.Ru, забирай!