PrimaNota.ru - самый крупный в мире бесплатный архив песенных текстов, аккордов, табулатур и нот


Flyleaf - So I Though - таба, видео

Регистрация Запомнить меня
Войти через:  Facebook Google Twitter Vk Yandex Mail.ru

Flyleaf - So I Though - таба, видео

Печатать
Просмотров: 146
Уроки эстрадного вокала в Санкт-Петербурге
Flyleaf - So I Thought

Tuning: D,A,D,g,b,e

-----
Verse
-----

clean

guitar1

e|-------17--14-----------17-------------|
b|---15---------15----15-----14h15p14-12-|
g|---------------------------------------|
D|---------------------------------------|
A|---------------------------------------|
D|---------------------------------------|

guitar2

e|---------------------------------------|
b|---------------------------------------|
g|---------------------------------------|
D|-0----------------0--------------------|
A|---------------------------------------|
D|---------------------------------------|

guitar1

e|-----------------------------------------------------------------|
b|-----------------------------------------------------------------|
g|------9-7----7--9-7---11----11--11--11-11-12----12--11h12-12--14-|
D|---7---------------------12------------------12-----12-----------|
A|-----------------------------------------------------------------|
D|-----------------------------------------------------------------|

guitar2

e|-----------------------------------------------------------------|
b|-----------------------------------------------------------------|
g|-----------------------------------------------------------------|
D|-----------------------------------------------------------------|
A|-2----------0----------------------------------------------------|
D|--------------------3--------------------------------------------|

Each time guitar1 is played a little bit different, but i couldn't figure it out.


------
Chours
------

distorted
play2x

e|-----------------------------|
b|-----------------------------|
g|-----------------------------|
D|-0-0--0-0--0-0-9-9--9-5--5-5-|
A|-0-0--0-0--0-0-9-9--9-5--5-5-|
D|-0-0--0-0--0-0-9-9--9-5--5-5-|

then

e|---------------------------------------------------------|
b|---------------------------------------------------------|
g|---------------------------------------------------------|
D|-0-0--0-0--0-0-9-9--9-5--5-5-2-2--2-2--2-2-5-5--5-5--5-5-|
A|-0-0--0-0--0-0-9-9--9-5--5-5-2-2--2-2--2-2-5-5--5-5--5-5-|
D|-0-0--0-0--0-0-9-9--9-5--5-5-2-2--2-2--2-2-5-5--5-5--5-5-|

e|---
b|---
g|---
D|-9-
A|-9- let ring
D|-9-


------
bridge
------

clean
something like this

e|---------------------------------------------------------------|
b|-------------------------------------------10-8----------------|
g|-11h12-11h12-11h12-11h12-11h12-11h12-11h12------11-11h12-11h12-|
D|---------------------------------------------------------------|
A|---------------------------------------------------------------|
D|---------------------------------------------------------------|


----
Solo
----

while guitar1 plays chours guitar2 plays

e|---------------------------17--------------------------------------------|
b|-14b-----14h15p14h15-15-15--------14h15p14h15-15-15-15-17-17-17-17-17-17-|
g|-------------------------------------------------------------------------|
D|-------------------------------------------------------------------------|
A|-------------------------------------------------------------------------|
D|-------------------------------------------------------------------------|

e|-------------------17-----22-22-22-22-22-22-22-22----------------------|
b|-14h15p14h15-15-15--------------------------------22-22-22-22-20-20-20-|
g|-----------------------------------------------------------------------|
D|-----------------------------------------------------------------------|
A|-----------------------------------------------------------------------|
D|-----------------------------------------------------------------------|

e|--------------------17--------------------------------------------|
b|--14h15p14h15-15-15--------14h15p14h15-15-15-15-17-17-17-17-17-17-|
g|------------------------------------------------------------------|
D|------------------------------------------------------------------|
A|------------------------------------------------------------------|
D|------------------------------------------------------------------|

e|-----------------------------------|
b|-----------------------------------|
g|-19--------14--11----11----12--14--|
D|----16--16--------12----12---------|
A|-----------------------------------|
D|-----------------------------------|

then
distorted

e|---
b|---
g|---
D|-0-
A|-0- let ring
D|-0-

play 2x

e|----------------------------------------------------------|
b|----------------------------------------------------------|
g|----------------------------------------------------------|
D|-9-9--9-9--9-9-7-7--7-7--7-7-5-5--5-5--5-5--5-5--5-5--5-5-|
A|-9-9--9-9--9-9-7-7--7-7--7-7-5-5--5-5--5-5--5-5--5-5--5-5-|
D|-9-9--9-9--9-9-7-7--7-7--7-7-5-5--5-5--5-5--5-5--5-5--5-5-|

play 2x

e|-----------------------------------------------------------------|
b|-----------------------------------------------------------------|
g|-----------------------------------------------------------------|
D|-9-9-9-9-9-9-9-9-7-7-7-7-7-7-7-7-5-5-5-5-5-5-5-5-5-5-5-5-5-5-5-5-|
A|-9-9-9-9-9-9-9-9-7-7-7-7-7-7-7-7-5-5-5-5-5-5-5-5-5-5-5-5-5-5-5-5-|
D|-9-9-9-9-9-9-9-9-7-7-7-7-7-7-7-7-5-5-5-5-5-5-5-5-5-5-5-5-5-5-5-5-|

end on

e|---
b|---
g|---
D|-0-
A|-0- let ring
D|-0-


There are still some more notes during the end but i couldn't figure them out.
Добавлено: 30.07.2012
Другие материалы по этой песне:
  • Аккорды и текст

Страница создана 30.07.2012
http://primanota.ru/flyleaf/so-i-though-chords.htm
Привет, Гость.
Предлагаем пройти революционный курс по гитаре.
Подарок от PrimaNota.Ru, забирай!