PrimaNota.ru - самый крупный в мире бесплатный архив песенных текстов, аккордов, табулатур и нот


Flyleaf - Okay - текст песни, таба, видео

Регистрация Запомнить меня
Войти через:  Facebook Google Twitter Vk Yandex Mail.ru

Flyleaf - Okay - текст песни, таба, видео

Печатать
Просмотров: 97
Okay - Flyleaf

The tab in the chorus is repeated twice... other than that, you're set!

Ask for any questions and comment for suggestions. If I get something wrong, please correct me.

I won't be satisfied with okay...
e|----1---|----1---|----1---|----1---|
B|--3--3-3|--3--3-3|--3--3-3|--3--3-3|
G|-2-2--2-|-2-2--2-|-2-2--2-|-2-2--2-|
D|0-------|0-------|--------|--------|
A|--------|--------|3-------|3-------|
E|--------|--------|--------|--------|

So point me to the edge of life...
e|----1---|--1-5----|-----10------|------10------|
B|--3--3-3|-----6-6-|--10---10--10|---10---10--10|
G|-2-2--2-|-2-2--7--|-----10--10--|10--------10--|
D|--------|---------|-8--8--------|--8--8--------|
A|--------|---------|-------------|--------------|
E|1-------|3--------|6------------|--------------|

It's too important...
e|--------|--------|--------|--------|
B|--------|--------|--------|--------|
G|--------|--------|--------|--------|
D|--------|--------|77777777|55552222|
A|55555550|88888880|55555555|33330000|
E|33333330|66666660|--------|--------|
Добавлено: 27.11.2015
Другие материалы по этой песне:

Страница создана 02.05.2012
http://primanota.ru/flyleaf/okay-chords.htm
Привет, Гость.
Предлагаем пройти революционный курс по гитаре.
Подарок от PrimaNota.Ru, забирай!