PrimaNota.ru - самый крупный в мире бесплатный архив песенных текстов, аккордов, табулатур и нот


Flyleaf - Ocean Waves - текст песни, таба, бас-таба, видео

Регистрация Запомнить меня
Войти через:  Facebook Google Twitter Vk Yandex Mail.ru

Flyleaf - Ocean Waves - текст песни, таба, бас-таба, видео

Печатать
Просмотров: 234
-------------------------------------------------------------------------------
                             OCEAN WAVES - Flyleaf
-------------------------------------------------------------------------------
Tabbed by:Luis Gustavo Hernández Collado
Email:ltavo_87@hotmail.com

Tuning:EADGBe

Intro
e|-----------------|
B|-----------------|
G|-44444444/7/(6)4-|X4
D|-44444444/7/(6)4-|
A|-22222222/5/(5)2-|
E|-----------------|

Verse 1
(So many wasted days, come and go like ocean waves...)
e|-------------------|
B|-------------------|
G|-------------------|X7
D|-------------------|
A|-0-2222-0-2222-5-4-|
E|-------------------|

Chorus 1
(How could I have been be so polite to simply let'em die?...)
e|----------------------------------------|
B|----------------------------------------|
G|-444444-777777--------------------------|X2
D|-444444-777777-777777-------------------|
A|-222222-555555-777777-------------555-3-|
E|---------------555555-777-5-777-5-------|

e|-----------------|
B|-----------------|
G|-44444444/7/(6)4-|X4
D|-44444444/7/(6)4-|
A|-22222222/5/(5)2-|
E|-----------------|

Verse 2
(Respect her ignorance, just in case she takes offense...)
e|-------------------|
B|-------------------|
G|-------------------|X7
D|-------------------|
A|-0-2222-0-2222-5-4-|
E|-------------------|

Chorus 2
(How could I have been be so polite to simply let'em die?...)
e|----------------------------------------|
B|----------------------------------------|
G|-444444-777777--------------------------|X2
D|-444444-777777-777777-------------------|
A|-222222-555555-777777-------------555-3-|
E|---------------555555-777-5-777-5-------|

Interlude
(You're not guaranteed tomorrow, you're not guaranteed tomorrow...)
e|--------|
B|--------|
G|-4444---|X4
D|-4444---|
A|-2222PM-|
E|--------|
PM=Palm Mute

Chorus 3/Outro
(How could I have been be so polite to simply let'em die?...)
e|----------------------------------------|
B|----------------------------------------|
G|-444444-777777--------------------------|X4
D|-444444-777777-777777-------------------|
A|-222222-555555-777777-------------555-3-|
E|---------------555555-777-5-777-5-------|
Добавлено: 03.07.2012
Другие материалы по этой песне:

Страница создана 04.03.2012
http://primanota.ru/flyleaf/ocean-waves-chords.htm
Привет, Гость.
Предлагаем пройти революционный курс по гитаре.
Подарок от PrimaNota.Ru, забирай!