PrimaNota.ru - самый крупный в мире бесплатный архив песенных текстов, аккордов, табулатур и нот


Flyleaf - Much Like Falling - текст песни, таба, бас-таба, видео

Регистрация Запомнить меня
Войти через:  Facebook Google Twitter Vk Yandex Mail.ru

Flyleaf - Much Like Falling - текст песни, таба, бас-таба, видео

Печатать
Просмотров: 296
Уроки эстрадного вокала в Санкт-Петербурге
e |----------------------------------------------|
b |----------------------------------------------|
g |--------4-------------------------------------|
d |--------------2---2-----------0---0-----------|
a |0-2-5-0-------2---2-----------0---0-----------| 2x
d |----------5-4-2---2-----------0---0-----------|

e |----------------------------------------------|
b |----------------------------------------------|
g |--------4-------------------------------------|
d |--------------2---2---x-4-5-4-0---0-----------|
a |0-2-5-0-------2---2—--x-------0---0-----------|
d |----------5-4-2—--2—--x-------0---0-----------|

e |----------------------------------------------|
b |----------------------------------------------|
g |--------4-------------------------------------|
d |--------------2---2-2-2-2-2-2-----------------|
a |0-2-5-0-------2---2-2-2-2-2-2-----------------|
d |----------5-4-2---2-2-2-2-2-2-----------------|

This is my first tab but I'm pretty sure it's right. I only tabbed the intro because the 
was really hard to hear.
Добавлено: 23.05.2012
Другие материалы по этой песне:
  • Аккорды и текст

Страница создана 26.02.2012
http://primanota.ru/flyleaf/much-like-falling-chords.htm
Привет, Гость.
Предлагаем пройти революционный курс по гитаре.
Подарок от PrimaNota.Ru, забирай!