PrimaNota.ru - самый крупный в мире бесплатный архив песенных текстов, аккордов, табулатур и нот


Flyleaf - Green Heart - текст песни, таба, видео

Регистрация Запомнить меня
Войти через:  Facebook Google Twitter Vk Yandex Mail.ru

Flyleaf - Green Heart - текст песни, таба, видео

Печатать
Просмотров: 162
Уроки эстрадного вокала в Санкт-Петербурге
-------------------------------------------------------------------------------
                             Green Heart - Flyleaf
-------------------------------------------------------------------------------
Tabbed by: Ahrum
E-mail: TheMoogleDance@hotmail.com

Tuning: Drop C

Verse (Heavy Distortion)
d|------------------------------------------------------------|
A|------------------------------------------------------------|
F|-----10-10-10-10----10-10-10-10----10-10-10-10--------------|
C|--5--------------5--------------5--------------8-8-8-8-6-6--|
G|--5--8--8--8--8--5--8--8--8--8--5--8--8--8--8--8-8-8-8-6-6--|
C|--5--------------5--------------5--------------8-8-8-8-6-6--| x4

Breakdown 1
d|------------------------------------------------------------------|
A|------------------------------------------------------------------|
F|------------------------------------------------------------------|
C|--5h6p5-5--8-8-8--5h6p5-5--9-9-9--5h6p5-5--9-8-6--5h6p5-5--8-8-8--|
G|--5h6p5-5--8-8-8--5h6p5-5--9-9-9--5h6p5-5--9-8-6--5h6p5-5--8-8-8--|
C|--5h6p5-5--8-8-8--5h6p5-5--9-9-9--5h6p5-5--9-8-6--5h6p5-5--8-8-8--|

Breakdown 2
d|-----------------------|
A|-----------------------|
F|-----------------------|
C|--1-0-0-1-0-0-3--1--0--|
G|--1-0-0-1-0-0-3--1--0--|
C|--1-0-0-1-0-0-3--1--0--| x4
    x x x x x x 


Chorus
d|-------------------------------------------------------|
A|-------------------------------------------------------|
F|-------------------------------------------------------|
C|--1---10---1---10---1-0-0-0--0-0-3-5--1---10---1---10--|
G|--1---10---1---10---1-0-0-0--0-0-3-5--1---10---1---10--|
C|--1---10---1---10---1-0-0-0--0-0-3-5--1---10---1---10--|
                      x x x x  x x 



IN SONG

VERSE
BREAKDOWN 1
BREAKDOWN 2
BREAKDOWN 1
BREAKDOWN 2
CHORUS
VERSE
BREAKDOWN 2
CHORUS
BREAKDOWN 1 (No bass string, alternate equalizer pedal w/ bass turned down)
BREAKDOWN 2
BREAKDOWN 1
BREAKDOWN 2
VERSE


Thanks for reading.

************************************

| /   slide up
| \   slide down
| h   hammer-on
| p   pull-off
| ~   vibrato
| +   harmonic
| x   Mute note
| b   Bend
| pb  Pre-bend
| br  Bend release
| pbr Pre-bend release
| brb Bend release bend

************************************
Добавлено: 18.07.2015
Другие материалы по этой песне:
  • Аккорды и текст

Страница создана 14.11.2013
http://primanota.ru/flyleaf/green-heart-chords.htm
Привет, Гость.
Предлагаем пройти революционный курс по гитаре.
Подарок от PrimaNota.Ru, забирай!