PrimaNota.ru - самый крупный в мире бесплатный архив песенных текстов, аккордов, табулатур и нот


Flying Lotus - Mmmhmm - бас-таба, видео

Регистрация Запомнить меня
Войти через:  Facebook Google Twitter Vk Yandex Mail.ru

Flying Lotus - Mmmhmm - бас-таба, видео

Печатать
Просмотров: 70
Авторы музыки: Thundercat, Flying Lotus

"MmmHmm"
by Flying Lotus
from the album Cosmogramma
Bass written by Stephen "Thundercat" Bruner

usually played on a 5-string but tabbed for standard 4-string

Intro x2
G|--9---9--7---9---9--14------14--14--14--14s13--13--
D|-10--10--8--10--10--12-----------------------------
A|-10--10--8--10--10--14------15--15--13--13s12--12--
E|--8---8--6---8---8------13------13--11--11s10--10--


Verse x3
G|--13-11-9-----------------------------------------------------9-12s11---------------------------------
D|----------11-9----------------------10s9----------------10-12---------12----9------9-------------8s10-
A|---------------11-9s7------------10------10-------10-12------------------12---9-12-------------8------
E|----------------------8--8-10-12------------10-12------------------------------------10-8-6--6--------

G|-----------------------------------5s7-9-12-11-------------------------------------------------------------
D|---------------------------------5-------------12----9------------------------10-9-------------------------
A|-8h10------8/10----8---1-----1s3------------------12------10----12s10------10------10-7-----------------14-
E|------8h10------10---8---1-3---------------------------12----10-------10s8--------------10-8-5-3s2-0-12----

G|-----------------------------------------------------------------------------------------------------------
D|-------16s17-------16-s17-------17s19-------17-s19-------17s19-------17-s19-------------15s17-------15s17--
A|----14----------14-----------15----------15-----------15----------15-----------15----13----------13--------
E|-12----------12-----------13----------13-----------13----------13-----------13----11----------11-----------


Alt. Verse (4th time)
G|--13-11-9----------------7---9---9--14-
D|----------11-9-----------8--10--10--12-
A|---------------11-9s7----8--10--10--14-
E|----------------------8--6---8---8-----

G|-----------------------------------------------------------------------------------------------------------
D|-------16s17-------16-s17-------17s19-------17-s19-------17s19-------17-s19-------------15s17-------15s17--
A|----14----------14-----------15----------15-----------15----------15-----------15----13----------13--------
E|-12----------12-----------13----------13-----------13----------13-----------13----11----------11-----------


Verse x2


End
G|--13-11-9-----|
D|----------11--|
A|--------------|
E|--------------|
Добавлено: 15.08.2015
Вам также может быть интересно:
Другие материалы по этой песне:
  • Аккорды и текст

Страница создана 15.08.2015
http://primanota.ru/flying-lotus/mmmhmm-chords.htm
Привет, Гость.
Предлагаем пройти революционный курс по гитаре.
Подарок от PrimaNota.Ru, забирай!