PrimaNota.ru - самый крупный в мире бесплатный архив песенных текстов, аккордов, табулатур и нот


Flying Colors - Shoulda Coulda Woulda - таба, видео

Регистрация Запомнить меня
Войти через:  Facebook Google Twitter Vk Yandex Mail.ru

Flying Colors - Shoulda Coulda Woulda - таба, видео

Печатать
Просмотров: 91
Авторы: Flying Colors

Flying Colors - shoulda coulda woulda

Official website:    http://flyingcolorsmusic.com/

Rhythm guitar
     W                   W                   W                 
E||-------------------|-------------------|-------------------|
B||-------------------|-------------------|-------------------|
G||--3----------------|-------------------|--5----------------|
D||--3----------------|--5----------------|--5----------------|
A||--1----------------|--5----------------|--3----------------|
D||-------------------|--5----------------|-------------------|


  W                   Q    E  E  E  E  Q       E  E  E  E  E  Q    E   
-------------------|------------------------|-------------------------|
-------------------|------------------------|-------------------------|
-------------------|------------------------|-------------------------|
--7----------------|------------------------|-------------------------|
--7----------------|--0----3--0--6--7--5----|--0--3--0--6--0--5----3--|
--7----------------|--0----3--0--6--7--5----|--0--3--0--6--0--5----3--|


  Q    E  E  E  E  Q       E  E  E  E  E  E  E  E     Q    E  E  E  E  Q     
------------------------|--------------------------|------------------------|
------------------------|--------------------------|------------------------|
------------------------|--------------------------|------------------------|
------------------------|--------------------------|------------------------|
--0----3--0--6--7--5----|--0--3--0--6--0--5--3--2--|--0----3--0--6--7--5----|
--0----3--0--6--7--5----|--0--3--0--6--0--5--3--2--|--0----3--0--6--7--5----|


  E  E  E  E  E  Q    E     Q    E  E  E  E  Q       E  E  E  E  E  E  E  E   
-------------------------|------------------------|--------------------------|
-------------------------|------------------------|--------------------------|
-------------------------|------------------------|--------------------------|
-------------------------|------------------------|--------------------------|
--0--3--0--6--0--5----3--|--0----3--0--6--7--5----|--0--3--0--6--0--5--3--2--|
--0--3--0--6--0--5----3--|--0----3--0--6--7--5----|--0--3--0--6--0--5--3--2--|


  PM   PM PM PM PM PM      PM PM PM PM PM PM   PM    PM   PM PM PM PM PM    
  Q    E  E  E  E  Q       E  E  E  E  E  Q    E     Q    E  E  E  E  Q     
------------------------|-------------------------|------------------------|
------------------------|-------------------------|------------------------|
------------------------|-------------------------|------------------------|
------------------------|-------------------------|------------------------|
--0----3--0--6--7--5----|--0--3--0--6--0--5----3--|--0----3--0--6--7--5----|
--0----3--0--6--7--5----|--0--3--0--6--0--5----3--|--0----3--0--6--7--5----|


  PM PM PM PM PM PM PM PM    PM   PM PM PM PM PM      PM PM PM PM PM PM   PM  
  E  E  E  E  E  E  E  E     Q    E  E  E  E  Q       E  E  E  E  E  Q    E   
--------------------------|------------------------|-------------------------|
--------------------------|------------------------|-------------------------|
--------------------------|------------------------|-------------------------|
--------------------------|------------------------|-------------------------|
--0--3--0--6--0--5--3--2--|--0----3--0--6--7--5----|--0--3--0--6--0--5----3--|
--0--3--0--6--0--5--3--2--|--0----3--0--6--7--5----|--0--3--0--6--0--5----3--|


  PM   PM PM PM PM PM      PM PM PM PM PM PM PM PM    PM   PM PM PM PM PM    
  Q    E  E  E  E  Q       E  E  E  E  E  E  E  E     Q    E  E  E  E  Q     
------------------------|--------------------------|------------------------|
------------------------|--------------------------|------------------------|
------------------------|--------------------------|------------------------|
------------------------|--------------------------|------------------------|
--0----3--0--6--7--5----|--0--3--0--6--0--5--3--2--|--0----3--0--6--7--5----|
--0----3--0--6--7--5----|--0--3--0--6--0--5--3--2--|--0----3--0--6--7--5----|


  PM PM PM PM PM PM   PM    PM   PM PM PM PM PM      PM PM PM PM PM PM PM PM  
  E  E  E  E  E  Q    E     Q    E  E  E  E  Q       E  E  E  E  E  E  E  E   
-------------------------|------------------------|--------------------------|
-------------------------|------------------------|--------------------------|
-------------------------|------------------------|--------------------------|
-------------------------|------------------------|--------------------------|
--0--3--0--6--0--5----3--|--0----3--0--6--7--5----|--0--3--0--6--0--5--3--2--|
--0--3--0--6--0--5----3--|--0----3--0--6--7--5----|--0--3--0--6--0--5--3--2--|


  PM   PM PM PM PM PM      PM PM PM PM PM PM   PM    PM   PM PM PM PM PM    
  Q    E  E  E  E  Q       E  E  E  E  E  Q    E     Q    E  E  E  E  Q     
------------------------|-------------------------|------------------------|
------------------------|-------------------------|------------------------|
------------------------|-------------------------|------------------------|
------------------------|-------------------------|------------------------|
--0----3--0--6--7--5----|--0--3--0--6--0--5----3--|--0----3--0--6--7--5----|
--0----3--0--6--7--5----|--0--3--0--6--0--5----3--|--0----3--0--6--7--5----|


  E  E  E  E  E  E  E  E     E  E  Q    E  E  Q       E  E  Q    E  E  Q     
--------------------------|------------------------|------------------------|
--------------------------|------------------------|------------------------|
--------------------------|------------------------|------------------------|
--------------------------|-------------5--5-------|--3--3-------7--7-------|
--0--3--0--6--0--5--3--2--|--5--5-------3--3-------|--1--1-------5--5-------|
--0--3--0--6--0--5--3--2--|--5--5------------------|------------------------|


  E  E  Q    E  E  Q       E  E  Q    E  E  Q       E  E  Q    E  E  Q     
------------------------|------------------------|------------------------|
------------------------|------------------------|------------------------|
------------------------|------------------------|------------------------|
-------------5--5-------|--3--3-------7--7-------|-------------5--5-------|
--5--5-------3--3-------|--1--1-------5--5-------|--5--5-------3--3-------|
--5--5------------------|------------------------|--5--5------------------|


  E  E  Q    E  E  Q       E  E  E  E  E  E  E  E     E  E  E  E  E  E  E  E   
------------------------|--------------------------|--------------------------|
------------------------|--------------------------|--------------------------|
------------------------|--------------------------|--------------------------|
--3--3-------7--7-------|--------------------------|--------------------------|
--1--1-------5--5-------|--1--1--1--1--1--1--1--1--|--2--2--2--2--2--2--2--2--|
------------------------|--1--1--1--1--1--1--1--1--|--2--2--2--2--2--2--2--2--|


  E  E  E  E  E  E  E  E     E  E  E  E  E  E  E  E     E  E  E  Q    E  E  E   
--------------------------|--------------------------|-------------------------|
--------------------------|--------------------------|-------------------------|
--------------------------|--------------------------|-------------------------|
--------------------------|--------------------------|-------------------------|
--3--3--3--3--3--3--3--3--|--4--4--4--4--4--4--4--4--|--5--0--3--5----0--3--5--|
--3--3--3--3--3--3--3--3--|--4--4--4--4--4--4--4--4--|--5--0--3--5----0--3--5--|


  E  E  E  Q    E  E  E     E  E  E  Q    E  E  E     E  E  E  Q    E  E  E   
-------------------------|-------------------------|-------------------------|
-------------------------|-------------------------|-------------------------|
-------------------------|-------------------------|-------------------------|
-------------------------|-------------------------|-------------------------|
-----0--3--5----8--7--5--|-----0--3--5----0--3--5--|-----0--3--5----3--2--0--|
--L--0--3--5----8--7--5--|--L--0--3--5----0--3--5--|--L--0--3--5----3--2--0--|


  PM   PM PM PM PM PM      PM PM PM PM PM PM   PM    PM   PM PM PM PM PM    
  Q    E  E  E  E  Q       E  E  E  E  E  Q    E     Q    E  E  E  E  Q     
------------------------|-------------------------|------------------------|
------------------------|-------------------------|------------------------|
------------------------|-------------------------|------------------------|
------------------------|-------------------------|------------------------|
--0----3--0--6--7--5----|--0--3--0--6--0--5----3--|--0----3--0--6--7--5----|
--0----3--0--6--7--5----|--0--3--0--6--0--5----3--|--0----3--0--6--7--5----|


  PM PM PM PM PM PM PM PM    PM   PM PM PM PM PM      PM PM PM PM PM PM   PM  
  E  E  E  E  E  E  E  E     Q    E  E  E  E  Q       E  E  E  E  E  Q    E   
--------------------------|------------------------|-------------------------|
--------------------------|------------------------|-------------------------|
--------------------------|------------------------|-------------------------|
--------------------------|------------------------|-------------------------|
--0--3--0--6--0--5--3--2--|--0----3--0--6--7--5----|--0--3--0--6--0--5----3--|
--0--3--0--6--0--5--3--2--|--0----3--0--6--7--5----|--0--3--0--6--0--5----3--|


  PM   PM PM PM PM PM      PM PM PM PM PM PM PM PM                           
  Q    E  E  E  E  Q       E  E  E  E  E  E  E  E     E  E  Q    E  E  Q     
------------------------|--------------------------|------------------------|
------------------------|--------------------------|------------------------|
------------------------|--------------------------|------------------------|
------------------------|--------------------------|-------------5--5-------|
--0----3--0--6--7--5----|--0--3--0--6--0--5--3--2--|--5--5-------3--3-------|
--0----3--0--6--7--5----|--0--3--0--6--0--5--3--2--|--5--5------------------|


  E  E  Q    E  E  Q       E  E  Q    E  E  Q       E  E  Q    E  E  Q     
------------------------|------------------------|------------------------|
------------------------|------------------------|------------------------|
------------------------|------------------------|------------------------|
--3--3-------7--7-------|-------------5--5-------|--3--3-------7--7-------|
--1--1-------5--5-------|--5--5-------3--3-------|--1--1-------5--5-------|
------------------------|--5--5------------------|------------------------|


  E  E  Q    E  E  Q       E  E  Q    E  E  Q       E  E  E  E  E  E  E  E   
------------------------|------------------------|--------------------------|
------------------------|------------------------|--------------------------|
------------------------|------------------------|--------------------------|
-------------5--5-------|--3--3-------7--7-------|--------------------------|
--5--5-------3--3-------|--1--1-------5--5-------|--1--1--1--1--1--1--1--1--|
--5--5------------------|------------------------|--1--1--1--1--1--1--1--1--|


  E  E  E  E  E  E  E  E     E  E  E  E  E  E  E  E   
--------------------------|--------------------------|
--------------------------|--------------------------|
--------------------------|--------------------------|
--------------------------|--------------------------|
--2--2--2--2--2--2--2--2--|--3--3--3--3--3--3--3--3--|
--2--2--2--2--2--2--2--2--|--3--3--3--3--3--3--3--3--|


  E  E  E  E  E  E  E  E     E  E  E  Q    E  E  E     E  E  E  Q    E  E  E   
--------------------------|-------------------------|-------------------------|
--------------------------|-------------------------|-------------------------|
--------------------------|-------------------------|-------------------------|
--------------------------|-------------------------|-------------------------|
--4--4--4--4--4--4--4--4--|--5--0--3--5----0--3--5--|-----0--3--5----8--7--5--|
--4--4--4--4--4--4--4--4--|--5--0--3--5----0--3--5--|--L--0--3--5----8--7--5--|


  E  E  E  Q    E  E  E     E  E  E  Q    E  E  E     Q    E  E  E  E  Q     
-------------------------|-------------------------|------------------------|
-------------------------|-------------------------|------------------------|
-------------------------|-------------------------|------------------------|
-------------------------|-------------------------|------------------------|
-----0--3--5----0--3--5--|-----0--3--5----3--2--0--|--0----3--0--6--7--5----|
--L--0--3--5----0--3--5--|--L--0--3--5----3--2--0--|--0----3--0--6--7--5----|


  E  E  E  E  E  Q    E     Q    E  E  E  E  Q       E  E  E  E  E  E  E  E   
-------------------------|------------------------|--------------------------|
-------------------------|------------------------|--------------------------|
-------------------------|------------------------|--------------------------|
-------------------------|------------------------|--------------------------|
--0--3--0--6--0--5----3--|--0----3--0--6--7--5----|--0--3--0--6--0--5--3--2--|
--0--3--0--6--0--5----3--|--0----3--0--6--7--5----|--0--3--0--6--0--5--3--2--|


  Q    E  E  E  E  Q       E  E  E  E  E  Q    E     Q    E  E  E  E  Q     
------------------------|-------------------------|------------------------|
------------------------|-------------------------|------------------------|
------------------------|-------------------------|------------------------|
------------------------|-------------------------|------------------------|
--0----3--0--6--7--5----|--0--3--0--6--0--5----3--|--0----3--0--6--7--5----|
--0----3--0--6--7--5----|--0--3--0--6--0--5----3--|--0----3--0--6--7--5----|


  E  E  E  E  E  E  E  E     Q    E  E  E  E  Q       E  E  E  E  E  Q    E   
--------------------------|------------------------|-------------------------|
--------------------------|------------------------|-------------------------|
--------------------------|------------------------|-------------------------|
--------------------------|------------------------|-------------------------|
--0--3--0--6--0--5--3--2--|--0----3--0--6--7--5----|--0--3--0--6--0--5----3--|
--0--3--0--6--0--5--3--2--|--0----3--0--6--7--5----|--0--3--0--6--0--5----3--|


  Q    E  E  E  E  Q       E  E  E  E  E  E  E  E     Q    E  E  E  E  Q     
------------------------|--------------------------|------------------------|
------------------------|--------------------------|------------------------|
------------------------|--------------------------|------------------------|
------------------------|--------------------------|------------------------|
--0----3--0--6--7--5----|--0--3--0--6--0--5--3--2--|--0----3--0--6--7--5----|
--0----3--0--6--7--5----|--0--3--0--6--0--5--3--2--|--0----3--0--6--7--5----|


  E  E  E  E  E  Q    E     Q    E  E  E  E  Q       E  E  E  E  E  E  E  E   
-------------------------|------------------------|--------------------------|
-------------------------|------------------------|--------------------------|
-------------------------|------------------------|--------------------------|
-------------------------|------------------------|--------------------------|
--0--3--0--6--0--5----3--|--0----3--0--6--7--5----|--0--3--0--6--0--5--3--2--|
--0--3--0--6--0--5----3--|--0----3--0--6--7--5----|--0--3--0--6--0--5--3--2--|


  W                   W                   W                   W                 
-------------------|-------------------|-------------------|-------------------|
-------------------|-------------------|-------------------|-------------------|
-------------------|-------------------|-------------------|-------------------|
-------------------|-------------------|-------------------|-------------------|
-------------------|-------------------|-------------------|-------------------|
-------------------|-------------------|-------------------|-------------------|


  W                   W                   W                   W                 
-------------------|-------------------|-------------------|-------------------|
-------------------|-------------------|-------------------|-------------------|
-------------------|-------------------|-------------------|-------------------|
-------------------|-------------------|-------------------|-------------------|
-------------------|-------------------|-------------------|-------------------|
-------------------|-------------------|-------------------|-------------------|


  W                   W                   W                   W                 
-------------------|-------------------|-------------------|-------------------|
-------------------|-------------------|-------------------|-------------------|
-------------------|-------------------|-------------------|-------------------|
-------------------|-------------------|-------------------|-------------------|
-------------------|-------------------|-------------------|-------------------|
-------------------|-------------------|-------------------|-------------------|


  W                   W                   W                 
-------------------|-------------------|-------------------|
-------------------|-------------------|-------------------|
-------------------|-------------------|-------------------|
-------------------|-------------------|-------------------|
-------------------|-------------------|-------------------|
-------------------|-------------------|-------------------|


                        PM   PM PM PM PM PM      PM PM PM PM PM PM   PM  
  H.           E  E     Q    E  E  E  E  Q       E  E  E  E  E  Q    E   
---------------------|------------------------|-------------------------|
---------------------|------------------------|-------------------------|
---------------------|------------------------|-------------------------|
---------------------|------------------------|-------------------------|
---------------3--2--|--0----3--0--6--7--5----|--0--3--0--6--0--5----3--|
---------------3--2--|--0----3--0--6--7--5----|--0--3--0--6--0--5----3--|


  PM   PM PM PM PM PM      PM PM PM PM PM PM PM PM    PM   PM PM PM PM PM    
  Q    E  E  E  E  Q       E  E  E  E  E  E  E  E     Q    E  E  E  E  Q     
------------------------|--------------------------|------------------------|
------------------------|--------------------------|------------------------|
------------------------|--------------------------|------------------------|
------------------------|--------------------------|------------------------|
--0----3--0--6--7--5----|--0--3--0--6--0--5--3--2--|--0----3--0--6--7--5----|
--0----3--0--6--7--5----|--0--3--0--6--0--5--3--2--|--0----3--0--6--7--5----|


  PM PM PM PM PM PM   PM    PM   PM PM PM PM PM      PM PM PM PM PM PM PM PM  
  E  E  E  E  E  Q    E     Q    E  E  E  E  Q       E  E  E  E  E  E  E  E   
-------------------------|------------------------|--------------------------|
-------------------------|------------------------|--------------------------|
-------------------------|------------------------|--------------------------|
-------------------------|------------------------|--------------------------|
--0--3--0--6--0--5----3--|--0----3--0--6--7--5----|--0--3--0--6--0--5--3--2--|
--0--3--0--6--0--5----3--|--0----3--0--6--7--5----|--0--3--0--6--0--5--3--2--|


  E  E  Q    E  E  Q       E  E  Q    E  E  Q       E  E  Q    E  E  Q     
------------------------|------------------------|------------------------|
------------------------|------------------------|------------------------|
------------------------|------------------------|------------------------|
-------------5--5-------|--3--3-------7--7-------|-------------5--5-------|
--5--5-------3--3-------|--1--1-------5--5-------|--5--5-------3--3-------|
--5--5------------------|------------------------|--5--5------------------|


  E  E  Q    E  E  Q       E  E  Q    E  E  Q       E  E  Q    E  E  Q     
------------------------|------------------------|------------------------|
------------------------|------------------------|------------------------|
------------------------|------------------------|------------------------|
--3--3-------7--7-------|-------------5--5-------|--3--3-------7--7-------|
--1--1-------5--5-------|--5--5-------3--3-------|--1--1-------5--5-------|
------------------------|--5--5------------------|------------------------|


  E  E  E  E  E  E  E  E     E  E  E  E  E  E  E  E   
--------------------------|--------------------------|
--------------------------|--------------------------|
--------------------------|--------------------------|
--------------------------|--------------------------|
--1--1--1--1--1--1--1--1--|--2--2--2--2--2--2--2--2--|
--1--1--1--1--1--1--1--1--|--2--2--2--2--2--2--2--2--|


  E  E  E  E  E  E  E  E     E  E  E  E  E  E  E  E     E  E  E  Q    E  E  E   
--------------------------|--------------------------|-------------------------|
--------------------------|--------------------------|-------------------------|
--------------------------|--------------------------|-------------------------|
--------------------------|--------------------------|-------------------------|
--3--3--3--3--3--3--3--3--|--4--4--4--4--4--4--4--4--|--5--0--3--5----0--3--5--|
--3--3--3--3--3--3--3--3--|--4--4--4--4--4--4--4--4--|--5--0--3--5----0--3--5--|


  E  E  E  Q    E  E  E     E  E  E  Q    E  E  E     E  E  E  Q    E  E  E   
-------------------------|-------------------------|-------------------------|
-------------------------|-------------------------|-------------------------|
-------------------------|-------------------------|-------------------------|
-------------------------|-------------------------|-------------------------|
-----0--3--5----8--7--5--|-----0--3--5----0--3--5--|-----0--3--5----8--7--5--|
--L--0--3--5----8--7--5--|--L--0--3--5----0--3--5--|--L--0--3--5----8--7--5--|


  E  E  E  Q    E  E  E     E  E  E  Q    E  E  E     E  E  E  Q    E  E  E   
-------------------------|-------------------------|-------------------------|
-------------------------|-------------------------|-------------------------|
-------------------------|-------------------------|-------------------------|
-------------------------|-------------------------|-------------------------|
--L--0--3--5----0--3--5--|-----0--3--5----8--7--5--|-----0--3--5----0--3--5--|
--L--0--3--5----0--3--5--|--L--0--3--5----8--7--5--|--L--0--3--5----0--3--5--|


  E  E  E  Q    E  E  E     E  E  E  Q    E  E  E     E  E  E  Q    E  E  E   
-------------------------|-------------------------|-------------------------|
-------------------------|-------------------------|-------------------------|
-------------------------|-------------------------|-------------------------|
-------------------------|-------------------------|-------------------------|
-----0--3--5----8--7--5--|--L--0--3--5----0--3--5--|-----0--3--5----8--7--5--|
--L--0--3--5----8--7--5--|--L--0--3--5----0--3--5--|--L--0--3--5----8--7--5--|


  E  E  E  Q    E  E  E     E  E  E  Q    E  E  E     E  E  E  Q    E  E  E   
-------------------------|-------------------------|-------------------------|
-------------------------|-------------------------|-------------------------|
-------------------------|-------------------------|-------------------------|
-------------------------|-------------------------|-------------------------|
-----0--3--5----0--3--5--|-----0--3--5----8--7--5--|--L--0--3--5----0--3--5--|
--L--0--3--5----0--3--5--|--L--0--3--5----8--7--5--|--L--0--3--5----0--3--5--|


  E  E  E  Q    E  E  E     E  E  E  Q    E  E  E     E  E  E  Q    E  E  E   
-------------------------|-------------------------|-------------------------|
-------------------------|-------------------------|-------------------------|
-------------------------|-------------------------|-------------------------|
-------------------------|-------------------------|-------------------------|
-----0--3--5----8--7--5--|-----0--3--5----0--3--5--|-----0--3--5----8--7--5--|
--L--0--3--5----8--7--5--|--L--0--3--5----0--3--5--|--L--0--3--5----8--7--5--|


  E  E  E  Q    E  E  E     E  E  E  Q    E  E  E     E  E  E  Q    E  E  E   
-------------------------|-------------------------|-------------------------|
-------------------------|-------------------------|-------------------------|
-------------------------|-------------------------|-------------------------|
-------------------------|-------------------------|-------------------------|
--L--0--3--5----0--3--5--|-----0--3--5----8--7--5--|-----0--3--5----0--3--5--|
--L--0--3--5----0--3--5--|--L--0--3--5----8--7--5--|--L--0--3--5----0--3--5--|


  E  E  E  Q    E  E  E     E  E  E  Q    E  E  E     E  E  E  Q    E  E  E   
-------------------------|-------------------------|-------------------------|
-------------------------|-------------------------|-------------------------|
-------------------------|-------------------------|-------------------------|
-------------------------|-------------------------|-------------------------|
-----0--3--5----8--7--5--|--L--0--3--5----0--3--5--|-----0--3--5----8--7--5--|
--L--0--3--5----8--7--5--|--L--0--3--5----0--3--5--|--L--0--3--5----8--7--5--|


  E  E  E  Q    E  E  E     E  E  E  Q    E  E  E    
-------------------------|-------------------------||
-------------------------|-------------------------||
-------------------------|-------------------------||
-------------------------|-------------------------||
-----0--3--5----0--3--5--|-----0--3--5----3--2--0--||
--L--0--3--5----0--3--5--|--L--0--3--5----3--2--0--||




Duration Legend
---------------
W - whole
H - half
Q - quarter
E - 8th
S - 16th
T - 32nd
X - 64th
. - note dotted
|-n-|  - n-tuplets


Tablature Legend
----------------
L - tied note
x - dead note
g - grace note
(n) - ghost note
> - accentuded note
NH - natural harmonic
AH - artificial harmonic
TH - tapped harmonic
SH - semi harmonic
PH - pitch harmonic
h - hammer on
p - pull off
b - bend
br - bendRelease
pb - preBend
pbr - preBendRelease
brb - bendReleaseBend
\n/ - tremolo bar dip
\n - tremolo bar dive
-/n - tremolo bar Release up
/n\ - tremolo bar inverted dip
/n - tremolo bar return
-\n - tremolo bar Release down
S - shift slide
s - legato slide
/ -  slide into from below or out of upwards
\ -  slide into from above or out of downwards
~ - vibrato
W - wide vibrato
tr - trill
TP - tremolo picking
T - tapping
S - slap
P - pop
< - fade in
^ - brush up
v - brush down
Добавлено: 24.09.2013
Другие материалы по этой песне:

Страница создана 24.09.2013
http://primanota.ru/flying-colors/shoulda-coulda-woulda-chords.htm
Привет, Гость.
Предлагаем пройти революционный курс по гитаре.
Подарок от PrimaNota.Ru, забирай!