PrimaNota.ru - самый крупный в мире бесплатный архив песенных текстов, аккордов, табулатур и нот


Flying Colors - Kayla - таба, видео

Регистрация Запомнить меня
Войти через:  Facebook Google Twitter Vk Yandex Mail.ru

Flying Colors - Kayla - таба, видео

Печатать
Просмотров: 96
Авторы: Flying Colors

-------------------------------------------------------------------------------
                             Kayla (intro) - Flying Colors
-------------------------------------------------------------------------------
Tabbed by: David Ambler

Tuning: EADGBE

e|-------------------------------4-------------------------------------------|
B|--12--11--9--7-----------------4----12--11--9--7--------12--14--16--14-----|
G|----------------9--8--6--4--3--6------------------9--8---------------------|
D|-------------------------------6-------------------------------------------|
A|--11---------9--------4--------4----11---------9--------11--13--14--13-----|
E|---------------------------------------------------------------------------|
Добавлено: 03.11.2014
Другие материалы по этой песне:

Страница создана 09.10.2014
http://primanota.ru/flying-colors/kayla-chords.htm
Привет, Гость.
Предлагаем пройти революционный курс по гитаре.
Подарок от PrimaNota.Ru, забирай!