PrimaNota.ru - самый крупный в мире бесплатный архив песенных текстов, аккордов, табулатур и нот


Flybanger - Cavalry - текст песни, таба, видео

Регистрация Запомнить меня
Войти через:  Facebook Google Twitter Vk Yandex Mail.ru

Flybanger - Cavalry - текст песни, таба, видео

Печатать
Просмотров: 118
Song: Cavalry
Artist: Flybanger
Album: Headtrip to Nowhere (2001)
As tabbed by Joe Muggah

Dropped D and tuned down a step

Intro                                   end on
d-----------------------------------------|-----------------
A-----------------------------------------|-----------------
F-----------------------------------------|-----------------
C-----------------------------------------|-----------------
G--3-5-5-5--3-5-5--3-5-5--3-5-5--3-5-5-5--|-----------------
C-----------------------------------------|--3^-------------

Verse (palm muted)
d-----------------------------------------------------------
A-----------------------------------------------------------
F-----------------------------------------------------------
C--0-0-0-0--0-0-0--0-0-0--0-0-0--0-0-0-0--------------------
G--3-5-5-5--3-5-5--3-5-5--3-5-5--3-5-5-5--------------------
C--0-0-0-0--0-0-0--0-0-0--0-0-0--0-0-0-0--------------------

Chorus A (Guitar 1)
d-----------------------------------------------------------
A-----------------------------------------------------------
F--5--5--5--5--5--5-----------------------------------------
C--5--5--5--5--5--5--0-0-0-0--0-0-0--0-0-0--0-0-0--0-0-0-0--
G--3--3--3--3--3--3--3-5-5-5--3-5-5--3-5-5--3-5-5--3-5-5-5--
C--------------------0-0-0-0--0-0-0--0-0-0--0-0-0--0-0-0-0--

(continued)
d-----------------------------------------------------------
A-----------------------------------------------------------
F--5--5--5--5--5--5-----------------------------------------
C--5--5--5--5--5--5--0-0-0-0--0-0-0--0-0--------------------
G--3--3--3--3--3--3--3-5-5-5--3-5-5--3-5--------------------
C--------------------0-0-0-0--0-0-0--0-0--------------------

Chorus B (Guitar 2)
d---------------------------10-----------------10-----------
A---------------------7-8-7-----7-8-7----7-8-7-----7-8-7^---
F-----------------------------------------------------------
C-----------------------------------------------------------
G-----------------------------------------------------------
C-----------------------------------------------------------

Riff (Guitar 2)
d-----------------------------------------------------------
A-----------------------------------------------------------
F-----------------------------------------------------------
C-----------------------------------------------------------
G-----------------------------------------------------------
C--0-3^---0-3^---0------------0-3^---0-3^---0---------------

Post-Chorus
d-----------------------------------------------------------
A-----------------------------------------------------------
F--4--4--4--4--4--------------------------------------------
C--4--4--4--4--4--------------------------------------------
G--2--2--2--2--2--------------------------------------------
C-----------------------------------------------------------

Solo (with wah)
d-----------------------------------------------------------
A-----------------------------------------------------------
F-----------------------------------------------------------
C-12--12--12------------------------------------------------
G-------------10-10-10-10-10-10-10-12-9-9-9-9-9-9-9-9-------
C-----------------------------------------------------10-10-

(continued)
d-----------------------------------------------------------
A-----------------------------------------------------------
F-----------------------------------------------------------
C-----------------------------------------------------------
G---------------------------------------------10-10-10-10---
C-10-10-10-10-10-10--12-12-12-12-12-12-12-12----------------

(continued)
d-----------------------------------------------------------
A-----------------------------------------------------------
F-----------------------------------------------------------
C------------------------------10--10--10--10---------------
G-10-10-10-12-9-9-9-9-9-9-9-9-------------------------------
C----------------------------------------------12--12--12---

(continued)
d-----------------------------------------------------------
A-----------------------------------------------------------
F-----------------------------------------------------------
C-----------------------------------------------------------
G-----10--10--10--12--9--9--9--9----------------------------
C-12------------------------------10-10-10-10-10-10-10-10---

(continued)
d-----------------------------------------------------------
A-----------------------------------------------------------
F-----------------------------------------------------------
C-----------------------------------------------------------
G----------------10--10--10-10-------------------9-9-9--10--
C-12--12--12--12----------------9-9-9--10-10-10-------------

(continued)
d-----------------------------------------------------------
A-----------------------------------------------------------
F-----------------------------------------------------------
C-----------------------------------------------------------
G-10-10-10-10-10--------------------------------------------
C-----------------------------------------------------------

Outro (palm muted)                    end on   
d---------------------------------------|-------------------
A---------------------------------------|-------------------
F---------------------------------------|-------------------
C--0-8-7--0-3-5--0-8-7--0-3-5--0-0-0-0--|-------------------
G--0-8-7--0-3-5--0-8-7--0-3-5--0-0-0-0--|-------------------
C--0-8-7--0-3-5--0-8-7--0-3-5--0-0-0-0--|--7^---------------


Intro
Verse 
Chorus A, B
Verse
Verse, Riff
Verse
Chorus A, B
Post-Chorus
Solo
Verse
Verse, Riff
Verse
Chorus A, B
Post-Chorus
Добавлено: 30.06.2012
Другие материалы по этой песне:
  • Аккорды и текст

Страница создана 08.06.2012
http://primanota.ru/flybanger/cavalry-chords.htm
Привет, Гость.
Предлагаем пройти революционный курс по гитаре.
Подарок от PrimaNota.Ru, забирай!