PrimaNota.ru - самый крупный в мире бесплатный архив песенных текстов, аккордов, табулатур и нот


Flybanger - Blind World - текст песни, таба, видео

Регистрация Запомнить меня
Войти через:  Facebook Google Twitter Vk Yandex Mail.ru

Flybanger - Blind World - текст песни, таба, видео

Печатать
Просмотров: 154
Blind World by Flybanger
Guitarist: Brian Fratesi
Album: Headtrip To Nowhere
Dif.: 7
Tabbed by TWIGGy5

NOTE: Tune to Drop C (C G C F A D)
NOTE: * = strum 8x

Jazz Intro (clean)
D|---7--7--6------7-7--7--6---8h10p8----
A|---6--6--5------6-6--6--5---8---------
F|---7--7--6------7-7--7--6---8---------
C|-5-5--5--4----5-5-5--5--4-------------
     Let ring    let ring

Jazz Intro (cont.) (clean)
D|---7--7--6------7-7--7--6---10--------
A|---6--6--5------6-6--6--5---8---------
F|---7--7--6------7-7--7--6---8---------
C|-5-5--5--4----5-5-5--5--4-------------
     Let ring    let ring    let ring
Roll down the last note. Starting from the F string down…

Fill 1 (w/ dist.)
G|---5---5---5---5--|
C|-0---0---0---0----|

Intro P2/Interlude
G|---5---5---5---5p3p0-|
C|-0---0---0---0-------|

Verse (“When are we gonna finally meet…..”)
G|---5---5---5---5--|-%-|-%-|-%-|----|
C|-0---0---0---0----|-%-|-%-|-%-|-3^-|

Verse P2
G|---5---5---5---5----|
C|-0---0---0---0---3^-|

Pre-Chorus (“Pretend you're not…….”)
F|-----------------------------------------------555-101010-
C|-5---5-5-5-3--3-3-3--2-3-2--5--5-5-5--3--3-3-3-xxx--x-x-x-
G|-5---5-5-5-3--3-3-3--2-3-2--5--5-5-5--3--3-3-3-333--8-8-8-
C|-5---5-5-5-3--3-3-3--2-3-2--5--5-5-5--3--3-3-3------------
                      PM----|

Pre-Chorus (cont.)Bend and pik the other 3 notes while bending
F|-----------------------------------------------5-5^-5-5-5-|
C|-5---5-5-5-3--3-3-3--2-3-2--5--5-5-5--3--3-3-3-x-x--x-x-x-|
G|-5---5-5-5-3--3-3-3--2-3-2--5--5-5-5--3--3-3-3-3-3^-3-3-3-|
C|-5---5-5-5-3--3-3-3--2-3-2--5--5-5-5--3--3-3-3------------|
                      PM-----|

Chorus (“Try to make…”) (Gtr. 1)
F|-----------5-5-5-|-%-|-%-|-------------|
C|-2--2-2-2--5-5-5-|-%-|-%-|-2-2-2-2-0-0-|
G|-2--2-2-2--3-3-3-|-%-|-%-|-2-2-2-2-0-0-|
C|-2--2-2-2--------|-%-|-%-|-2-2-2-2-0-0-|

Chorus (Gtr. 2) (w/wah)
C|-----------9h10p9-7~~~-|-%-|-%-|------------------|
 High C

Fill 2
C|-15\\\\\-|------------------|-feedback-|
 LOW C

Bridge
C|-0-1^-|-%-|-%-|-0h1p0-|
  LOW C

Fill 3
G|-0-|
C|-0-|

Bridge 2 (“Pretend you're not…….”)
F|-----------------3*-5-5-5-5-5/7-7-|
C|-5-5-5-5-3-3-3-3-3*-5-5-5-5-5/7-7-|
G|-5-5-5-5-3-3-3-3-1*-3-3-3-3-3/5-5-|
C|-5-5-5-5-3-3-3-3------------------|

Outro (Gtr. 1)
C|-2-2-2-2--7^--(7)-|
G|-2-2-2-2----------|
C|-2-2-2-2----------|
             ^ bend ½ step back then back down to bracketed
                7

End
G|-0--------------|
C|-0--------------|

Song Structure: -
Jazz Intro
Fill 1
Intro P2
Verse
Verse P2 (“When are we gonna finally meet Ahhh…”)
Pre-Chorus
Chorus (Gtr. 1)/Chorus (Gtr. 2)
Fill 1
Interlude
Verse (“When are we gonna…..”)
Verse P2 (“When are we gonna finally meet Ahhh…”)
Pre-Chorus
Chorus (Gtr. 1)/Chorus (Gtr. 2)
Fill 2
Bridge
Fill 3
Bridge 2
Chorus (Gtr. 1)/Chorus (Gtr. 2)
Outro (Gtr. 1)/Outro (Gtr. 2) ß can't hear that great so don't know
End

Alright there you go. Sorry didn't put that last solo. Can't 
hear it that well. Brian got crazy with overdubs on this album, 
if you have any comments, corrections or suggestions email me at 
toxic345x@yahoo.ca
===========Song: Blind World
Artist: Flybanger
Album: Headtrip to Nowhere (2001)
As tabbed by Joe Muggah

Dropped D and tuned down a step

Intro (clean electric guitar)
d---------------------------8p10p8-----------------------10-
A-----7--7--6------7--7--6--8---------7--7--6------7--7---8-
F-----6--6--5------6--6--5--8---------6--6--5------6--6---8-
C-----7--7--6------7--7--6------------7--7--6------7--7-----
G--5--5--5--4---5--5--5--4---------5--5--5--4---5--5--5-----
C-----------------------------------------------------------

Riff A (Guitar 1) 
d-----------------------------------------------------------
A-----------------------------------------------------------
F-----------------------------------------------------------
C-----------------------------------------------------------
G----5---5---5---5------5---5---5---5-----------------------
C--0---0---0---0------0---0---0---0-------------------------

Riff B (Guitar 2)
d-----------------------------------------------------------
A-----------------------------------------------------------
F-----------------------------------------------------------
C-----------------------------------------------------------
G----5---5---5---5--5p3p0-----5---5---5---5--5p3p0----------
C--0---0---0---0------------0---0---0---0-------------------

Verse                                     end on
d--------------------------------------|--------------------
A--------------------------------------|--------------------
F--------------------------------------|--------------------
C--------------------------------------|--------------------
G----5---5---5---5------5---5---5---5--|--------------------
C--0---0---0---0------0---0---0---0----|--3^----------------
("When are we gonna finally meet...")

Pre-Chorus
d-----------------------------------------------------------
A-----------------------------------------------------------
F-----------------------------------------------------------
C-----------------------------------------------------------
G----5---5---5---5---------5---5---5---5--------------------
C--0---0---0---0----3^---0---0---0---0----3^----------------

Chorus
d-----------------------------------------------------------
A-----------------------------------------------------------
F----------------------------------------------------5-5-5--
C-5--5-5--5-5--3--3-3-3--2-3m-2m-0m--5--5-5--5-5--3--3-3-3--
G-5--5-5--5-5--3--3-3-3--2-3m-2m-0m--5--5-5--5-5--3--3-3-3--
C-5--5-5--5-5--3--3-3-3--2-3m-2m-0m--5--5-5--5-5--3--3-3-3--
("Return...you're not blind...")

(continued)
d-----------------------------------------------------------
A-----------------------------------------------------------
F----5-5-10-------------------------------------------------
C-3--x-x--x--5--5-5--5-5--3--3-3-3--2-3m-2m-0m--5--5-5--5-5-
G-3--3-3--8--5--5-5--5-5--3--3-3-3--2-3m-2m-0m--5--5-5--5-5-
C-3----------5--5-5--5-5--3--3-3-3--2-3m-2m-0m--5--5-5--5-5-

(continued)
d-----------------------------------------------------------
A-----------------------------------------------------------
F-----------5-5-5-5^-5^-------------------------------------
C-3--3-3-3--5-5-5-5^-5^-------------------------------------
G-3--3-3-3--3-3-3-3^-3^-------------------------------------
C-3--3-3-3--------------------------------------------------

Post-Chorus A (Guitar 1)
d-----------------------------------------------------------
A-----------------------------------------------------------
F-----------5-5------------5-5------------5-5---------------
C-2--2-2-2--5-5--2--2-2-2--5-5--2--2-2-2--5-5--2m-2m-2m-0-0-
G-2--2-2-2--3-3--2--2-2-2--3-3--2--2-2-2--3-3--2m-2m-2m-0-0-
C-2--2-2-2-------2--2-2-2-------2--2-2-2-------2m-2m-2m-0-0-
("Tried to make...")

Post-Chorus B (Guitar 2, with wah)
d-----------------------------------------------------------
A-----------------------------------------------------------
F--4-4/54--2v----------4-4/54--2v-------------------------
C-----------------------------------------------------------
G-----------------------------------------------------------
C-----------------------------------------------------------

Bridge 1
d-------|---------------------------------------------------
A-------|---------------------------------------------------
F-------|---------------------------------------------------
C--12--|---------------------------------------------------
G--12--|---------------------------------------------------
C--12--|--0h1^--0h1^--0h1^--0h1-0--0h1^--0h1^--0h1^--0h1-0-

Bridge 2
d-----------------------------------------------------------
A-----------------------------------------------------------
F-----------------------------------------------------------
C-5-5-5-5-5--3-3-3-3--8-8-8-8-8-8-8-8--10-10-10-10-10/12-12-
G-5-5-5-5-5--3-3-3-3--8-8-8-8-8-8-8-8--10-10-10-10-10/12-12-
C-5-5-5-5-5--3-3-3-3--8-8-8-8-8-8-8-8--10-10-10-10-10/12-12-
("Return...

Outro A (Guitar 1)
d-----------------------------------------------------------
A-----------------------------------------------------------
F-----------------------------------------------------------
C--2--2-2-2-2--0--7^8---2--2-2-2-2--0--7^8------------------
G--2--2-2-2-2--0--------2--2-2-2-2--0-----------------------
C--2--2-2-2-2--0--------2--2-2-2-2--0-----------------------

Outro B (Guitar 2)
d-----------------------------------------------------------
A--12v-12v-12v-12v-12v-12v-12v-12v---15^---15^-15^-15^------
F-----------------------------------------------------------
C-----------------------------------------------------------
G-----------------------------------------------------------
C-----------------------------------------------------------

(continued)
d-----------------------------------------------------------
A--------9^--------9^10---------9^---------9^10-------------
F--9--9-------9--9--------9--9-------9--9-------------------
C-----------------------------------------------------------
G-----------------------------------------------------------
C-----------------------------------------------------------

Intro 
Riff A
Riff A, B
Verse
Pre-Chorus
Chorus
Post-Chorus A, B
Riff A
Riff A, B
Verse
Pre-Chorus
Chorus
Post-Chorus A, B
Bridge 1
Bridge 2
Post-Chorus A, B
Outro A, B
Добавлено: 24.03.2012
Другие материалы по этой песне:
  • Аккорды и текст

Страница создана 13.03.2012
http://primanota.ru/flybanger/blind-world-chords.htm
Привет, Гость.
Предлагаем пройти революционный курс по гитаре.
Подарок от PrimaNota.Ru, забирай!