PrimaNota.ru - самый крупный в мире бесплатный архив песенных текстов, аккордов, табулатур и нот


Flume And Chet Faker - Drop The Game - аккорды и текст, видео

Регистрация Запомнить меня
Войти через:  Facebook Google Twitter Vk Yandex Mail.ru

Flume And Chet Faker - Drop The Game - аккорды и текст, видео

Печатать
Просмотров: 241
Уроки эстрадного вокала в Санкт-Петербурге
Drop The Game
Flume And Chet Faker
--------------------------------------------------------------------------
                     Drop The Game - Chet Faker and Flume
--------------------------------------------------------------------------

Transcribed by Sooz
Email: SoozMuze@gmail.com
Tuning: EADGBe (slightly detuned)


INTRO (and CHORUS):
Am                                          CMaj7   
I've been seeing all, I've been seeing your so-ul, 
                      E7             E
Give me things that I wanted to kn-ow, 
                           Am
Tell me things that you've done.

Am                                       CMaj7      
I've been feeling old, I've been feeling co-ld. 
                       E7   E
You're the heat that I kn-ow, 
                    Am
They say you are my sun.


RIFF:
   Am               CMaj7           E7  E         Am
e|-5-8-5---5-------|--------5------|-------------|--------------------||
B|-----------8-5---|5-8-5-----8-5--|5-8-5--------|--------------8-----||
G|*---------------7|--------------7|-----------7-|9---------7-9--9-7-*||
D|*----------------|---------------|------7-10---|-----7-10----------*||
A|-----------------|---------------|-------------|--------------------||
E|-----------------|---------------|-------------|--------------------|| x2
 Woh-oh-oh....



VERSE:
Am                                     CMaj7
Hush, I said there's more to life than rush,
                                E7  E
Not gonna leave this place with us,
                         Am
Drop the game, it's not enough.

Am                                     CMaj7
Hush, I said there's more to life than rush,
                                E7  E
Not gonna leave this place with us,
                         Am
Drop the game, it's not enough.



CHORUS (with RIFF over the top):
Am                                          CMaj7   
I've been seeing all, I've been seeing your so-ul, 
                      E7             E
Give me things that I wanted to kn-ow, 
                           Am
Tell me things that you've done.

Am                                       CMaj7      
I've been feeling old, I've been feeling co-ld. 
                       E7   E
You're the heat that I kn-ow, 
                    Am
They say you are my sun.


RIFF:
   Am               CMaj7           E7  E         Am
e|-5-8-5---5-------|--------5------|-------------|--------------------||
B|-----------8-5---|5-8-5-----8-5--|5-8-5--------|--------------8-----||
G|*---------------7|--------------7|-----------7-|9---------7-9--9-7-*||
D|*----------------|---------------|------7-10---|-----7-10----------*||
A|-----------------|---------------|-------------|--------------------||
E|-----------------|---------------|-------------|--------------------||x2
 Woh-oh-oh....



CHORUS (with RIFF over the top):
Am                                          CMaj7   
I've been seeing all, I've been seeing your so-ul, 
                      E7             E
Give me things that I wanted to kn-ow, 
                           Am
Tell me things that you've done.

Am                                       CMaj7      
I've been feeling old, I've been feeling co-ld. 
                       E7   E
You're the heat that I kn-ow, 
                    Am
They say you are my sun.


Am                                          CMaj7   
I've been seeing all, I've been seeing your so-ul, 
                      E7             E
Give me things that I wanted to kn-ow, 
                           Am
Tell me things that you've done.

Am                                       CMaj7      
I've been feeling old, I've been feeling co-ld. 
                       E7   E
You're the heat that I kn-ow, 
                    Am
They say you are my sun.


Am                                          CMaj7   
I've been seeing all, I've been seeing your so-ul, 
                      E7             E
Give me things that I wanted to kn-ow, 
                           Am
Tell me things that you've done.

Am                                       CMaj7      
I've been feeling old, I've been feeling co-ld. 
                       E7   E
You're the heat that I kn-ow, 
                    Am
They say you are my sun.


Am                                          CMaj7   
I've been seeing all, I've been seeing your so-ul, 
                      E7             E
Give me things that I wanted to kn-ow, 
                           Am
Tell me things that you've done.

Am                                       CMaj7      
I've been feeling old, I've been feeling co-ld. 
                       E7   E
You're the heat that I kn-ow, 
                    Am
They say you are my sun.



OUTRO (Same as RIFF): 
   Am               CMaj7           E7  E         Am
e|-5-8-5---5-------|--------5------|-------------|--------------------||
B|-----------8-5---|5-8-5-----8-5--|5-8-5--------|--------------8-----||
G|*---------------7|--------------7|-----------7-|9---------7-9--9-7-*||
D|*----------------|---------------|------7-10---|-----7-10----------*||
A|-----------------|---------------|-------------|--------------------||
E|-----------------|---------------|-------------|--------------------|| 5 times
 Woh-oh-oh....
Добавлено: 12.04.2016
Вам также может быть интересно:
Другие материалы по этой песне:
  • Аккорды и текст

Страница создана 12.04.2016
http://primanota.ru/flume-and-chet-faker/drop-game-chords.htm
Привет, Гость.
Предлагаем пройти революционный курс по гитаре.
Подарок от PrimaNota.Ru, забирай!