PrimaNota.ru - самый крупный в мире бесплатный архив песенных текстов, аккордов, табулатур и нот


Flow - Word Of The Voice - текст песни, таба, видео

Регистрация Запомнить меня
Войти через:  Facebook Google Twitter Vk Yandex Mail.ru

Flow - Word Of The Voice - текст песни, таба, видео

Печатать
Просмотров: 240
-----------------------------------------------------------------------------
                             Flow - Word of the voice
-----------------------------------------------------------------------------
Tabbed by:JayThePunk
Tuning: Standard


for awesome sounding mute done at the beggining mute strings at fret 14 or 15

Intro
e|-----------|
B|-----------|
G|----8-10---|
D|-5--8-10-8-| x2
A|-5--6-8--8-|
E|-3-------6-|

Verse
e|------------------------|
B|------------------------|
G|---10-10-10-10-10-8-10--|
D|-8-10-------------8-10--| x2
A|-8-8--------------6-8---|
E|-6----------------------|
PM^^^^^^^^^^

pre chorus
e|---------------------|
B|---------------------|
G|---------------------|
D|-------55xx55xx55xx6-|
A|-------55xx55xx55xx6-|x4
E|-/////-33xx33xx33xx4-|

Then
e|-------|
B|-------|
G|-----7-|
D|-5-6-7-|
A|-5-6-5-|
E|-3-4---|

Chorus
e|----------------------------------------------------|
B|----------------------------------------------------|
G|-8-10---13-12-10-8-8-10-12-7-8-10---12-8-10-12-8-10-|
D|-8-10-8-xx-xx-x--x-8-10-12-7-8-10-8-12-8-10-12-8-10-|
A|-6-8--8-11-10-8--6-6-8--10-5-6-8--8-10-6-8--10-6-8--|
E|------6---------------------------6-----------------|

play intro or

e|----------------------|
B|--12 full bend up-11--|
G|----------------------|
D|----------------------|
A|----------------------|
E|----------------------|

verse 2
play verse barre chord it pluck each string and play in clean. 

Solo play chorus
the chorus again
then intro 

sorry couldn't get most of the lead or solo i will work on it and hopefully put it up 

soon
Key
| /  slide up
| \  slide down
| h  hammer-on
| p  pull-off
| ~  vibrato
| +  harmonic
| x  Mute note
| ^  Palm mute
| *  Let ring 
=============================================================================
Добавлено: 27.05.2012
Другие материалы по этой песне:
  • Аккорды и текст

Страница создана 27.05.2012
http://primanota.ru/flow/word-of-the-voice-chords.htm
Привет, Гость.
Предлагаем пройти революционный курс по гитаре.
Подарок от PrimaNota.Ru, забирай!