PrimaNota.ru - самый крупный в мире бесплатный архив песенных текстов, аккордов, табулатур и нот


Flow - Naruto Fighting Dreamers - таба, видео

Регистрация Запомнить меня
Войти через:  Facebook Google Twitter Vk Yandex Mail.ru

Flow - Naruto Fighting Dreamers - таба, видео

Печатать
Просмотров: 243
E|-----------------------------------------------|
B|-----------------------------------------------|
G|------4---4---4-------------4-4-4-4-4----------|
D|------4---4---4------20\----4-4-4-4-4----------|
A|------2---2---2------20\----2-2-2-2-2----------|
E|---------------------20\-----------------------|

                        Chorus
E|-------------------------------------------------------|
B|-------------------------------------------------------|
G|----4-4-4-4--------------------------------------------|
D|----4-4-4-4--2-2-2-2--4-4-4-4--2-2-2-2-----------------|
A|----2-2-2-2--2-2-2-2--4-4-4-4--2-2-2-2-----------------|
E|-------------0-0-0-0--2-2-2-2--0-0-0-0-----------------|

E|-------------------------------------------------------|
B|-------------------------------------------------------|
G|----4-4-4-4--------------------------------------------|
D|----4-4-4-4--2-2-2-2--4-x-x-x-x-4-x-x-4-x-x-4----------|
A|----2-2-2-2--2-2-2-2--4-x-x-x-x-4-x-x-4-x-x-4----------|
E|-------------0-0-0-0--2-x-x-x-x-2-x-x-2-x-x-2----------|

E|-------------------------------------------------------|
B|-------------------------------------------------------|
G|----4-4-4-4--------------------------------------------|
D|----4-4-4-4--2-2-2-2--4-4-4-4--2-2-2-2-----------------|
A|----2-2-2-2--2-2-2-2--4-4-4-4--2-2-2-2-----------------|
E|-------------0-0-0-0--2-2-2-2--0-0-0-0-----------------|

E|-------------------------------------------------------|
B|-------------------------------------------------------|
G|----4-4-4-4--------------------------------------------|
D|----4-4-4-4--2-2-2-2--4-4-4-4-4-4----------------------|
A|----2-2-2-2--2-2-2-2--4-4-4-4-4-4----------------------|
E|-------------0-0-0-0--2-2-2-2-2-2----------------------|

                         Verse 1
E|--------------------------------------------------------|
B|--------------------------------------------------------|
G|----4-4---4-4---4-4---4-4--5-5--------------------------|
D|----4-4---4-4---4-4---4-4--5-5--------------------------|
A|----2-2---2-2---2-2---2-2--3-3--------------------------|
E|--------------------------------------------------------|

E|--------------------------------------------------------|
B|--------------------------------------------------------|
G|----4-4---4-4---4-4---4-4---2-2--3-3--------------------|
D|----4-4---4-4---4-4---4-4---2-2--3-3--------------------|
A|----2-2---2-2---2-2---2-2---0-0--1-1--------------------|
E|--------------------------------------------------------|

E|--------------------------------------------------------|
B|--------------------------------------------------------|
G|----4-4---4-4---4-4---4-4--5-5--------------------------|
D|----4-4---4-4---4-4---4-4--5-5--------------------------|
A|----2-2---2-2---2-2---2-2--3-3--------------------------|
E|--------------------------------------------------------|

E|--------------------------------------------------------|
B|--------------------------------------------------------|
G|----4-4---4-4-------2--2--2--4--4--4--------------------|
D|----4-4---4-4-------2--2--2--4--4--4--------------------|
A|----2-2---2-2-------0--0--0--2--2--2--------------------|
E|--------------------------------------------------------|


                       Verse 2
E|--------7--6-7---------7--6-7------7--6-7-7-9-7-7-6-7--|
B|-----------------4-------------7-----------------------|
G|---4-------------4-------------6-----------------------|  (x2)
D|---4-------------2-------------4-----------------------|
A|---2---------------------------------------------------|
E|-------------------------------------------------------|

E|-------------------------------------------------------|
B|-----------4-------7-----------------------------------|
G|---4-------4-------6------4----x-x-4--x-x--------------|
D|---4-------2-------4------4----x-x-4--x-x--------------|
A|---2----------------------2----x-x-2--x-x--------------|
E|-------------------------------------------------------|

E|-------------------------------------------------------|
B|-----------4-------7-----------------------------------|
G|-4-4-------4-------6------4---x-x-x-4------------------|
D|-4-4-------2-------4------4---x-x-x-4------------------|
A|-2-2----------------------2---x-x-x-2------------------|
E|-------------------------------------------------------|

                       Verse 3
E|--------------------------------------------------------|
B|--------------------------------------------------------|
G|----4-4---4-4---4-4---4-4--5-5--------------------------|
D|----4-4---4-4---4-4---4-4--5-5--------------------------|
A|----2-2---2-2---2-2---2-2--3-3--------------------------|
E|--------------------------------------------------------|

E|-------------------------------12-11-9------------------|
B|---------------------------12---------------------------|
G|----4-4---4-4---4--------11--11-------------------------|
D|----4-4---4-4---4---------------------------------------|
A|----2-2---2-2---2---------------------------------------|
E|--------------------------------------------------------|
Добавлено: 15.03.2012
Другие материалы по этой песне:
  • Аккорды и текст

Страница создана 15.03.2012
http://primanota.ru/flow/naruto-fighting-dreamers-chords.htm
Привет, Гость.
Предлагаем пройти революционный курс по гитаре.
Подарок от PrimaNota.Ru, забирай!