PrimaNota.ru - самый крупный в мире бесплатный архив песенных текстов, аккордов, табулатур и нот


Flow - Music - таба, видео

Регистрация Запомнить меня
Войти через:  Facebook Google Twitter Vk Yandex Mail.ru

Flow - Music - таба, видео

Печатать
Просмотров: 142
-------------------------------------------------------------------------------
                             Flow - Music
-------------------------------------------------------------------------------
Tabbed by:Jaythepunk

Tuning: Standard

Intro
e|---------------------------------------------------------------------------|
B|---------------------------------------------------------------------------|
G|---------------------------------------------------------------------------|
D|-11-11-11-11-11-11-11-11-11-12---------------------------------------------|x4
A|---------------------------------------------------------------------------|
E|---------------------------------------------------------------------------|

verse
e|---------------------------------------------------------------------------|
B|---------------------------------------------------------------------------|
G|---------------------------------------------------------------------------|
D|-4-2-4-4-5-5-5--4-2-4-4-7-7-7----------------------------------------------|x4
A|-4-2-4-4-5-5-5--4-2-4-4-7-7-7----------------------------------------------|
E|-2-0-2-2-3-3-3--2-0-2-2-5-5-5----------------------------------------------|

e|---------------------------------------------------------------------------|
B|---------------------------------------------------------------------------|
G|-11-11-11-11-12-11-11-11-11-12 11-11-11-11-12-11-11-11-11-14-14b-----------|x3
D|---------------------------------------------------------------------------|
A|---------------------------------------------------------------------------|
E|---------------------------------------------------------------------------|

e|---------------------------------------------------------------------------|
B|---------------------------------------------------------------------------|
G|---------------------------------------------------------------------------|
D|-4-4-4-4-2-4-4-5-5-5--4-2-4-4-7-7-7----------------------------------------|x4
A|-4-4-4-4-2-4-4-5-5-5--4-2-4-4-7-7-7----------------------------------------|
E|-2-2-2-2-0-2-2-3-3-3--2-0-2-2-5-5-5----------------------------------------|

e|---------------------------------------------------------------------------|
B|---------------------------------------------------------------------------|
G|-11-11-11-11-12-11-11-11-11-12 11-11-11-11-12-11-11-11-11-14-14b-----------|x3
D|---------------------------------------------------------------------------|
A|---------------------------------------------------------------------------|
E|---------------------------------------------------------------------------|

Pre Chorus
e|----------|
B|----------|
G|----------|
D|-4-2-4-4--|x4
A|-4-2-4-4--|
E|-2-0-2-2--|

Chorus
e|-------------|
B|-------------|
G|-------7--9--|
D|-4--7--7--9--|x2
A|-4--7--5--7--|
E|-2--5--------|

Verse 2
e|---------------------------------------------------------------------------|
B|-14-14-14---14x-14x-14-14-14-14-13-13-13-13-12-12-12-12-10-10-10-10--------|
G|--------------x---x--------------------------------------------------------|
D|-11-11-11---11x-11x-11-11-11-11-10-10-10-10-9--9--9--9--7--7--7--7---------|
A|---------------------------------------------------------------------------|
E|---------------------------------------------------------------------------|

Post chorus 3
e|---------------------------------------------------------------------------|
B|---------------------------------------------------------------------------|
G|----------------------11-11-11-11-11---------------------------------------|
D|-4-4-4---4-4-4--4-4-4----------------4--4--4-4-----------------------------|
A|-4-4-4---4-4-4--4-4-4-9--9--9--9--9--4--4--4-4-----------------------------|
E|-2-2-2---2-2-2--2-2-2----------------2--2--2-2-----------------------------|

Bridge
e|-------------------|
B|-------------------|
G|-------------------| play until chorus
D|-------4-4----4----|
A|-----4------4------|
E|-2-2------2--------|




Key
| /  slide up
| \  slide down
| h  hammer-on
| p  pull-off
| ~  vibrato
| +  harmonic
| x  Mute note
| ^  Palm mute
| *  Let ring 
===============================================================================
Добавлено: 24.02.2012
Другие материалы по этой песне:
  • Аккорды и текст

Страница создана 24.02.2012
http://primanota.ru/flow/music-chords.htm
Привет, Гость.
Предлагаем пройти революционный курс по гитаре.
Подарок от PrimaNota.Ru, забирай!