PrimaNota.ru - самый крупный в мире бесплатный архив песенных текстов, аккордов, табулатур и нот


Flow - Just Do It - таба, видео

Регистрация Запомнить меня
Войти через:  Facebook Google Twitter Vk Yandex Mail.ru

Flow - Just Do It - таба, видео

Печатать
Просмотров: 390
--------------------------------------------------------------------------
			     Just Do It!! - Flow
--------------------------------------------------------------------------
Tabbed by: Jaythepunk
Email:

Tuning: Standard
			End intro on this
Intro
e|--------------|  |-------------------------------------------------|
B|--------------|  |-------------------------------------------------|
G|--------------|  |-------------------------------------------------|
D|--4x4x4x4x4x5-|x4|--4x4x4x4x4--------------------------------------|
A|--4x4x4x4x4x5-|  |--4x4x4x4x4--------------------------------------|x1
E|--2x2x2x2x2x3-|  |--2x2x2x2x2--------------------------------------|

Pre Verse
e|-2x2x2x2x-4x4x4x4x-6x6x6x6x-2x2x2x2x--2x2x2x2x-4x4x4x4x-6x6x6x6x--------|
B|-2x2x2x2x-6x6x6x6x-8x8x8x8x-4x4x4x4x--2x2x2x2x-6x6x6x6x-8x8x8x8x--------|
G|-3x3x3x3x-6x6x6x6x-8x8x8x8x-4x4x4x4x--3x3x3x3x-6x6x6x6x-8x8x8x8x-444-6--|
D|-4x4x4x4x-6x6x6x6x-8x8x8x8x-4x4x4x4x--4x4x4x4x-6x6x6x6x-8x8x8x8x-444-6--|x1
A|-----------------------------------------------------------------222-4--|
E|------------------------------------------------------------------------|

Verse
e|--2x2x2x2x2x2x2x2x-4x4x4x4x4x4x4x4x-2x2x2x2x2x2x2x2x-2x2x2x2x-4x4x4x4x--|
B|--2x2x2x2x2x2x2x2x-6x6x6x6x6x6x6x6x-2x2x2x2x2x2x2x2x-4x4x4x4x-6x6x6x6x--|
G|--3x3x3x3x3x3x3x3x-6x6x6x6x6x6x6x6x-3x3x3x3x3x3x3x3x-4x4x4x4x-6x6x6x6x--|x2
D|--4x4x4x4x4x4x4x4x-6x6x6x6x6x6x6x6x-4x4x4x4x4x4x4x4x-4x4x4x4x-6x6x6x6x--|
A|------------------------------------------------------------------------|
E|------------------------------------------------------------------------|

Pre Chorus
e|------------------------------------------------------------------------|
B|------------------------------------------------------------------------|
G|-------------------------------------44444444-33333333-66666666---------|
D|-99999999-88888888-66666666-88888888-44444444-33333333-66666666---------|x1
A|-99999999-88888888-66666666-88888888-22222222-11111111-44444444---------|
E|-77777777-66666666-44444444-66666666------------------------------------|

Chorus
e|------------------------------------------------------------------------|
B|------------------------------------------------------------------------|
G|-----------66666666-88888888-444444-------------------------------------|
D|--44444444-66666666-88888888-444444-------------------------------------|x2
A|--44444444-44444444-66666666-222222-------------------------------------|
E|--22222222--------------------------------------------------------------|
                               ^^ ^^
Verse 2
e|------------------------------------------------------------------------|
B|------------------------------------------------------------------------|
G|----------66666666-88888888-44444444-44444444-66666666------------------|
D|-44444444-66666666-88888888-44444444-44444444-66666666-4----------------|
A|-44444444-44444444-66666666-22222222-22222222-44444444-4----------------|
E|-22222222----------------------------------------------2----------------|
    ^^^^^^^  ^^^^^^^  ^^^^^^^  ^^^^^^^  ^^^^^^^  ^^^^^^^ *

Bridge
e|----------------------------------9-------------9-----------------------|
B|------------------------------------9---------9-------------------------|
G|-----------6---8---4---4---6---11----------11---------------------------|
D|-----4---6---8---4---4---6---11---------11------------------------------|
A|---4---4---6---2---2---4---9----------9---------------------------------|
E|-2----------------------------------------------------------------------|

e|------------------------------------9-7-6-2-----------------------------|
B|------------------------------------9-7-6-2-----------------------------|
G|-----------6---8---4---4---6---11---------------------------------------|
D|-----4---6---8---4---4---6---11-----------------------------------------|
A|---4---4---6---2---2---4---9--------------------------------------------|
E|-2----------------------------------------------------------------------|
                                            *  
e|-22---44---66---22---22---44---------9------------9---------------------|
B|-22---66---88---44---44---66-----------9--------9-----------------------|
G|-33---66---88---44---44---66------11---------11-------------------------|
D|-44---66---88---44---44---66---11---------11----------------------------|
A|-----------------------------9----------9-------------------------------|
E|------------------------------------------------------------------------|

e|-22---44---66---22---22---44-9-7-6-2------------------------------------|
B|-22---66---88---44---44---66-9-7-6-2------------------------------------|
G|-33---66---88---44---44---66--------------------------------------------|
D|-44---66---88---44---44---66--------------------------------------------|
A|------------------------------------------------------------------------|
E|------------------------------------------------------------------------|

Verse 3 - Outro          End on
e|-----------------|   |--------------------------------------------------|
B|-----------------|   |--------------------------------------------------|
G|-------------554-|x11|--------------------------------------------------|
D|-4x4-776-4x4-554-|   |-444----------------------------------------------|
A|-4x4-776-4x4-332-|   |-444----------------------------------------------|
E|-2x2-554-2x2-----|   |-222----------------------------------------------|

Key
| /  slide up
| \  slide down
| h  hammer-on
| p  pull-off
| ~  vibrato
| +  harmonic
| x  Mute note
| ^  Palm mute
| *  Let ring 
Добавлено: 22.03.2012
Другие материалы по этой песне:
  • Аккорды и текст

Страница создана 22.03.2012
http://primanota.ru/flow/just-do-it-chords.htm
Привет, Гость.
Предлагаем пройти революционный курс по гитаре.
Подарок от PrimaNota.Ru, забирай!