PrimaNota.ru - самый крупный в мире бесплатный архив песенных текстов, аккордов, табулатур и нот


Flow - Garden - текст песни, таба, видео

Регистрация Запомнить меня
Войти через:  Facebook Google Twitter Vk Yandex Mail.ru

Flow - Garden - текст песни, таба, видео

Печатать
Просмотров: 151
-----------------------------------------------------------------------------
                             FLOW - Garden
-----------------------------------------------------------------------------
Tabbed by: Jaythepunk
Email:

Tuning: Standard

Intro
e|-------0------------0----------0---------0----------0---------0-----------0-|
B|----------0-----------0----------0---------0----------0---------0-------0---|
G|----1-------1----1------1---2------2---2-----2----1-----1---1-----1---2-----|
D|--2------------2----------2----------2----------2---------2---------2-------|
A|----------------------------------------------------------------------------|
E|----------------------------------------------------------------------------|

----4-------|
-0----3-----|
--------2-0-|
------------|x 3
------------|
------------|
Pre Verse
e|-----------------------------------------------------------------------------|
B|-----------------------------------------------------------------------------|
G|-7-7-7--7--9--18-16-14-13-18-16-14-13-13-13--13-16-13------------------------|
D|-7-7-7--7--9--X--X--X--X--X--X--X--X--X--X---X--X--X-------------------------|
A|-5-5-5--5--7--16-14-12-11-16-14-12-11-11-11--11-14-11------------------------|
E|-----------------------------------------------------------------------------|

Verse
e|-x-x-5-x-x-5-x-x-5-x-x-5-x-x-7-x-x-7-x-x-7-x-x-7-x-x-5-x-x-5-x-x-5-x-x------|
B|-x-x-5-x-x-5-x-x-5-x-x-5-x-x-9-x-x-9-x-x-9-x-x-9-x-x-5-x-x-5-x-x-5-x-x------|
G|-x-x-6-x-x-6-x-x-6-x-x-6-x-x-9-x-x-9-x-x-9-x-x-9-x-x-6-x-x-6-x-x-6-x-x------|
D|-x-x-7-x-x-7-x-x-7-x-x-7-x-x-9-x-x-9-x-x-9-x-x-9-x-x-7-x-x-7-x-x-7-x-x------|
A|----------------------------------------------------------------------------|
E|----------------------------------------------------------------------------|

5-x-x-5-x-x-5-x-x-5-x-x-5----|
5-x-x-7-x-x-7-x-x-9-x-x-7----|
6-x-x-7-x-x-7-x-x-9-x-x-7----|
7-x-x-7-x-x-7-x-x-9-x-x-7----|
-----------------------------|
-----------------------------|

Pre chorus
e|--------------------------------------------------------------------------|
B|--------------------------------------------------------------------------|
G|-7-7-7--7--9--------------------------------------------------------------|
D|-7-7-7--7--9--7-7-7-7-----------------------------------------------------|
A|-5-5-5--5--7--7-7-7-7-----------------------------------------------------|
E|--------------5-5-5-5-----------------------------------------------------|

Chorus
e|---------------------------|
B|---------------------------|
G|----9-11-7---9-7-7--7-9----|
D|--7-9-11-7-7-9-7-7--7-9----|
A|--7-7-9--5-7-7-5-5--5-7----|
E|--5--------5---------------|

Bridge
e|---------------------------------------------------------------|
B|---------------------------------------------------------------|
G|----7-9-7---7-9------------------------------------------------|
D|--7-7-9-7-7-7-9---7--------------------------------------------|
A|--7-5-7-5-7-5-7---7--------------------------------------------|
E|--5-------5-------5--------------------------------------------|
                    ^- use this chord with the rhythm in the song
Pre chorus
e|------------|
B|------------|
G|--7-9-11----|
D|--7-9-11----|
A|--5-7-9-----|
E|------------|

Last Chrous
e|---------------------------------|
B|---------------------------------|
G|----11-13-9----11-9-9--9-11------|
D|--9-11-13-9--9-11-9-9--9-11------| x4 repeat last bit twice then end
A|--9-9--11-7--9-9--7-7--7-9-------|
E|--7----------7-------------------|


Key
| /  slide up
| \  slide down
| h  hammer-on
| p  pull-off
| ~  vibrato
| +  harmonic
| x  Mute note
| ^  Palm mute
| *  Let ring
=============================================================================
Добавлено: 04.07.2012
Другие материалы по этой песне:
  • Аккорды и текст

Страница создана 04.07.2012
http://primanota.ru/flow/garden-chords.htm
Привет, Гость.
Предлагаем пройти революционный курс по гитаре.
Подарок от PrimaNota.Ru, забирай!