PrimaNota.ru - самый крупный в мире бесплатный архив песенных текстов, аккордов, табулатур и нот


Flow - Gakuen Heaven - таба, видео

Регистрация Запомнить меня
Войти через:  Facebook Google Twitter Vk Yandex Mail.ru

Flow - Gakuen Heaven - таба, видео

Печатать
Просмотров: 129
-------------------------------------------------------------------------------
			     FLOW - Gakuen Heaven
-------------------------------------------------------------------------------
Tabbed by: Jaythepunk
Email:

Tuning: Standard

Intro
e|-------------------------------------------------------------|
B|-------------------------------------------------------------|
G|-------------------------------------------------------------|
D|-8-----9-8------8-9-6-8--8-7-6-5-4-3-8-7-6-5-4-3-8-----------|
A|-8-----9-8------8-9-6-8--8-7-6-5-4-3-8-7-6-5-4-3-8-Let-ring--|
E|-6-----7-6------6-7-4-6--6-5-4-3-2-1-6-5-4-3-2-1-6-----------|
		       PM  ^^^^^^^^^^^
Are you ready?!....
e|-------------------------------------------------------------|
B|-------------------------------------------------------------|
G|---------------8-6-3-6-3-------------------------------------|
D|--8-6-3-6-8----8-6-3-6-3-3---3---3-3-3-----------------------|
A|--8-6-3-6-8----6-4-1-4-1-3---3---3-3-3-----------------------|
E|--6-4-1-4-6--------------1---1---1-1-1-----------------------|

Verse
e|-6-6-6-6---8--8--8--8----6-6-6-6--6-6-6-6-------|
B|-6-6-6-6---10-10-10-10---8-8-8-8--6-6-6-6-------|
G|-7-7-7-7---10-10-10-10---8-8-8-8--7-7-7-7-------|
D|-8-8-8-8---10-10-10-10---8-8-8-8--8-8-8-8-8-----| x2
A|------------------------------------------8-----|
E|------------------------------------------6-----|
                                            ^- play as last note on 2nd time round
Chorus  
e|-----------------------------------------------|
B|-----------------------------------------------|
G|----3---3-7-8-9-10--7-------5-8-10-------------|
D|--3-3-3-3-7-8-9-10--7-8-5-5-5-8-10-------------|
A|--3-1-3-1-5-6-7-8---5-8-5-5-3-6-8--------------|
E|--1---1---------------6-3-3--------------------|

e|---------|
B|---------|
G|---------|
D|--6-8----|x4
A|--6-8----|
E|--4-6----|

Bridge
e|--------------------------------------------------------------|
B|--------------------------------------------------------------|
G|---------8-----10-10-8-8--3-7-8-9-10--------------------------|
D|--8------8-----10-10-8-8--3-7-8-9-10--------------------------|
A|--8------6-----8--8--6-6--1-5-6-7-8---------------------------|
E|--6-----------------------------------------------------------|

Outro
e|--------------------------------------------------------------|
B|--------------------------------------------------------------|
G|---10----7-8-9-10-7-8-9-10------------------------------------|
D|-8-10-8--7-8-9-10-7-8-9-10-8----------------------------------|
A|-8-8--8--5-6-7-8--5-6-7-8--8----------------------------------|
E|-6----6--------------------6----------------------------------|


Key
| /  slide up
| \  slide down
| h  hammer-on
| p  pull-off
| ~  vibrato
| +  harmonic
| x  Mute note
| ^  Palm mute
| *  Let ring 
======================================================
Добавлено: 06.04.2012
Другие материалы по этой песне:
  • Аккорды и текст

Страница создана 06.04.2012
http://primanota.ru/flow/gakuen-heaven-chords.htm
Привет, Гость.
Предлагаем пройти революционный курс по гитаре.
Подарок от PrimaNota.Ru, забирай!