PrimaNota.ru - самый крупный в мире бесплатный архив песенных текстов, аккордов, табулатур и нот


Flow - Colors - текст песни, таба, бас-таба, видео

Регистрация Запомнить меня
Войти через:  Facebook Google Twitter Vk Yandex Mail.ru

Flow - Colors - текст песни, таба, бас-таба, видео

Печатать
Просмотров: 103
-------------------------------------------------------------------------------
                             Colors - Flow
-------------------------------------------------------------------------------
Tabbed by: Sicklegend9
E-mail: OrtegaSalvador7861@gmail.com
This is my first tab so go easy on me guys.

Tuning: Half-Step Down

eb|---------------------|---------------------------------------------------------|
Bb|--11-11-9-8-8--------|-------/8-9----------------------------------------------|
Gb|---------------8p7h8-|-(3x)-------*4-------------------------------------------|
Db|---------------------|---------------------------------------------------------|
Ab|---------------------|---------------------------------------------------------|
Eb|---------------------|---------------------------------------------------------|

  Cant explain strumming pattern but ill post a link from the video I got this tab from

eb|----------------------------------------------------------------------------------------|
Bb|----------------------------------------------------------------------------------------|
Gb|------------------------------------------------------------8-8-8--8-8-8--8-8-8--8-8-8--|
Db|----6-6-6--6-6-6--6-6-6--6-6-6--8-8-8--8-8-8--8-8-8--8-8-8--8-8-8--8-8-8--8-8-8--8-8-8--|
Ab|----6-6-6--6-6-6--6-6-6--6-6-6--8-8-8--8-8-8--8-8-8--8-8-8--6-6-6--6-6-6--6-6-6--6-6-6--|
Eb|----4-4-4--4-4-4--4-4-4--4-4-4--6-6-6--6-6-6--6-6-6--6-6-6------------------------------|

eb|---------------------------------------------------------------------------|
Bb|---------------------------------------------------------------------------|
Gb|---5-5-5--5-5-5--5-5-5--5-5-5--6--8----------------------------------------|
Db|---5-5-5--5-5-5--5-5-5--5-5-5--6--8----------------------------------------|
Ab|---3-3-3--3-3-3--3-3-3--3-3-3--4--6----------------------------------------|
Eb|---------------------------------------------------------------------------|

eb|---------------------|--------11--10--8--------------------------------------------------|
Bb|--11-11-9-8-8--------|--------x---x---x---/7-8--x-x-5--8-7-------------------------------|
Gb|---------------8p7h8-|----8~~-8---7---5--------------------8-----------------------------|
Db|---------------------|---------------------------------------10-8-6-5-6~--8--10--8--5-6--|
Ab|---------------------|-------------------------------------------------------------------|
Eb|---------------------|-------------------------------------------------------------------|

eb|----------------------------------------------------------------------------------------|
Bb|-------------------------------------------------------8/11--11--8/11--11--x-x--13--11--|
Gb|--8-8-8--x--8-8-8----8/10--10--8/10--10-x-x--12--10----x-x---x---x-x---x---x-x--x---x---|
Db|--8-8-8--x--8-8-8----x-x---x---x-x---x--x-x--x---x-----5/8---8---5/8---8---x-x--10--8---|
Ab|--6-6-6--x--6-6-6----6/8---8---6/8---8--x-x--10--8--------------------------------------|
Eb|----------------------------------------------------------------------------------------|

eb|---------------------------------------------------------|
Bb|-------------------------------8/11-11-11--11/13\11/13~~-|
Gb|--8/10--10--8/10--x-x--12--10--x-x--x--x----x--x-x---x---|
Db|--x-x---x---x-x---x-x--x---x---5/8--8--8----8/10\8/-10~~-|
Ab|--6/8---8---6/8---x-x--10--8-----------------------------|
Eb|---------------------------------------------------------|

eb|---------------------------------------------------------------------------|
Bb|---------------------------------------------------------------------------|
Gb|---12--8--12--10--8--7--8--7--5--7--5--3--5--3--5/7--5--7/9~~--------------|
Db|---------------------------------------------------------------------------|
Ab|---------------------------------------------------------------------------|
Eb|---------------------------------------------------------------------------|

eb|---------------------------------------------------------------------------------------------|
Bb|---------------------------------------------------------------------------------------------|
Gb|-------------------------------------------------------5--7--8-------------------------------|
Db|---------------------8-8-8-8---5-5-5-5-----------------5--7--8-------------------------------|
Ab|--6-6-6-6---8-8-8-8--6-6-6-6---3-3-3-3---6-6-6-6-------3--5--6----(Pick slide. Its Optional)-|
Eb|--4-4-4-4---6-6-6-6----------------------4-4-4-4---3v----------------------------------------|

eb|-------------------------------------------------------------------------------------------|
Bb|--------------------------------------------------11-11-9-8-8--------11-11-9-8-8-----------|
Gb|--------------------------------------------------------------8p7h8---------------8p7h8----|
Db|--------------------8-8-8-8--5-5-5-5-------------------------------------------------------|
Ab|--6-6-6-6--8-8-8-8--6-6-6-6--3-3-3-3-------------------------------------------------------|
Eb|--4-4-4-4--6-6-6-6---------------------4v~---6v~-------------------------------------------|


https://www.youtube.com/watch?v=DvF8mVM-8hI 

I made the tab from watching this video so give credit to the guy who made this video and subscribe. :)
Добавлено: 06.06.2016
Другие материалы по этой песне:

Страница создана 25.02.2012
http://primanota.ru/flow/colors-chords.htm
Привет, Гость.
Предлагаем пройти революционный курс по гитаре.
Подарок от PrimaNota.Ru, забирай!