PrimaNota.ru - самый крупный в мире бесплатный архив песенных текстов, аккордов, табулатур и нот


Flotsam And Jetsam - Remember - аккорды и текст, таба, видео

Регистрация Запомнить меня
Войти через:  Facebook Google Twitter Vk Yandex Mail.ru

Flotsam And Jetsam - Remember - аккорды и текст, таба, видео

Печатать
Просмотров: 112
Уроки эстрадного вокала в Санкт-Петербурге
Remember
Flotsam And Jetsam
		   m: dak  daksiee@mail.wcresa.k12.mi.us>

Title: "Remember"
Band: Flotsam and Jetsam
Album: Drift
Transcribed by Michael Daksiewicz

b = slight bend
\ = slide
p = pull-off
PM = palm muted

(Part I) Play 2X
             PM.....                           PM.....
e|----------------------------------------------------------------------
B|----------------------------------------------------------------------
G|-14----12--------------------------14----12---------------------------
D|-14----12--------------------------14----12---------------------------
A|-12----10--------2------2------2---12----10--------2--\7777775-------2
E|-------------0-000--3b--0--3b--0---------------0-000----------7p5-3b-0

(Part II) Play 2X
e|---------------------------------------------------------|
B|---------------------------------------------------------|
G|---------------------------------------------------------|
D|-9-------------------------------------------------------|
A|-7-------------5----------------2------\7777775-------2--|
E|-0-----------------6---5---3b---0--------------7p5-3b-0--|

Play (Part I) 2X
Play (Part II) 2X

(Chorus) Play 4X
                                  PM...
e|------------------------------------------|
B|------------------------------------------|
G|------------------------------------------|
D|------------------------------------------|
A|-5----7---8---5b---2-----5----7---8-7--2--|
E|-3----5---6---3b---0-----3----5---6-5--0--|

Play (Part I) 2X
Play (Part II) 2X
Play (Chorus) 4X

(Part IV) Play 4X
  PM.....               PM.....               PM.....
e|---------------------------------------------------------------------|
B|---------12--12-12-12----------12--12-12-12----------12--12-12-------|
G|---------12--12-12-12----------12--12-12-12----------12--12-12-------|
D|---------12--12-12-12----------12--12-12-12----------12--12-12--5--7-|
A|-2---------------------2---------------------2------------------5--7-|
E|-0-0000----------------0-0000----------------0-0000-------------3--5-|

Play (Part I) 2X
Play (Part III) 4X
Play (Part IV) 6X

(Ending)
e|-----------------------------------------|
B|-----------------------------------------|
G|-----------------------------------------|
D|--5-----7------------2-------------------|
A|--5-----7------------2-------------------|
E|--3-----5-----3b-----0-------------------|     
Добавлено: 01.12.2013
Другие материалы по этой песне:

Страница создана 13.06.2012
http://primanota.ru/flotsam-and-jetsam/remember-chords.htm
Привет, Гость.
Предлагаем пройти революционный курс по гитаре.
Подарок от PrimaNota.Ru, забирай!