PrimaNota.ru - самый крупный в мире бесплатный архив песенных текстов, аккордов, табулатур и нот


Flotsam And Jetsam - N. e. Terror - текст песни, таба, видео

Регистрация Запомнить меня
Войти через:  Facebook Google Twitter Vk Yandex Mail.ru

Flotsam And Jetsam - N. e. Terror - текст песни, таба, видео

Печатать
Просмотров: 135
       Flotsam and Jetsam
        - N.E. Terror -
      No Place For Disgrace

        tabbed by PelzR


Some words to this tab. First I should apologize for the long delay... I've worked on this tab
some years ago and didn't finished it. It started as an Guitar Pro tab but after some time I lost
my interest in tabbing it. I changed my mind and the final result is the text tab you see here. 

The most of it should be correct. The only thing that isn't quite right is the outro riff, I think
there are 2 voices (like the lead sections). You have to listen carefully to get the timings for the
riffs, sometimes it can become... tricky. 

I didn't wrote down the structure of the complete song. With this riff you have to learn the order
of the whole song by yourself. But that should be no problem as the song isn't complex as hell.

At last I didn't (couldn't) tab the solos, but I tabbed the oriental lead parts.
They consists of the guitars, one played by Michael Gilbert and the other by Edward Carlson.
The first Section (A) is played with fast picking, so don't wonder about the way it is tabbed.


Tuning: Standard E (E A D G B E)


Riff Section:
-------------

Intro

E|-------------------|-------------------|------------------|------------------|
B|-------------------|-------------------|------------------|------------------|
G|-------------------|-------------------|------------------|------------------|
D|-6--------7--------|-9--------7--------|-4----------------|-7----------------|
A|-4-444444-5-444444-|-7-444444-5-444444-|-2-44444444444444-|-5-44444444444444-|
E|-------------------|-------------------|------------------|------------------|
     ......   ......     ......   ......     ..............     ..............

  
E|------------|             |-------------|
B|------------|             |-------------|
G|----R-------| and at the  |-7-6---------|
D|-6----7-9-7-| end of the  |-----7-6-----|
A|-4----5-7-5-| intro that: |---------7-6-|
E|------------|             |-------------|


Verse 
   
E|--------------------|--------------|--------------------|---------------|
B|--------------------|--------------|--------------------|---------------| 
G|--------------------|--------------|--------------------|---------------| 
D|-7-6----------------|--------------|-7-6----------------|-7--7-7-7-7-7--|
A|-5-4-44444444444444-|-5--4-2-2-4-5-|-5-4-44444444444444-|-5--5-5-5-5-5--| 
E|--------------------|-3--2-0-0-2-3-|--------------------|---------------|
       ..............                      ..............        . . . .

E|---------| the break
B|---------| during the verse
G|----R----| differs sometimes
D|-7-----7-| but the note 
A|-5-----5-| remains the same
E|---------|


Slide (if necessary)

E|-----| 
B|-----| altough I think
G|-----| they use their
D|-----| guitar tremolos
A|-12\-| 
E|-12\-| 



Pre-Chorus

E|---------------|-------------|-------------|---------|
B|---------------|-------------|-------------|---------|
G|---------------|-------------|-------------|---------|
D|-4-6---7-7-7-7-|-6---9-9-9-9-|-6---7-7-7-7-|-6-------|
A|-2-4---5-5-5-5-|-4---7-7-7-7-|-4---5-5-5-5-|-4---7-6-|
E|-2-4---5-5-5-5-|-4---7-7-7-7-|-4---5-5-5-5-|-4---7-7-|

E|---------------|-------------|-------------|-------------------|
B|---------------|-------------|-------------|-------------------|
G|---------------|-------------|-------------|-------------------|
D|-4-6---7-7-7-7-|-6---9-9-9-9-|-6---7-7-7-7-|-6-----------------|
A|-2-4---5-5-5-5-|-4---7-7-7-7-|-4---5-5-5-5-|-4--5-5-5-4-4-4-4--|
E|-2-4---5-5-5-5-|-4---7-7-7-7-|-4---5-5-5-5-|-4--3-3-3-2-2-2-2--|
                                                  . . . . . . .

Chorus

E|-------------------|-----------------|-----------------|-------------|
B|-------------------|-----------------|-----------------|-------------|
G|-------------------|-----------------|-----------------|-------------|
D|-------------------|-----------------|-----------------|-------------|
A|-2-4-4-4-4-5-5-5-5-|-4-4-4-4-7-7-7-7-|-4-4-4-4-5-5-5-5-|-4-4-4-4-7-6-|
E|-2-4-4-4-4-5-5-5-5-|-4-4-4-4-7-7-7-7-|-4-4-4-4-5-5-5-5-|-4-4-4-4-7-7-|
   . . . . . . . . .   . . . . . . . .   . . . . . . . .   . . . . 

E|-------------------|-----------------|-----------------|-----------------------|
B|-------------------|-----------------|-----------------|-----------------------|
G|-------------------|-----------------|-----------------|-----------------------|
D|-------------------|-----------------|-----------------|-----------------------|
A|-2-4-4-4-4-5-5-5-5-|-4-4-4-4-7-7-7-7-|-4-4-4-4-5-5-5-5-|-4-4-4-4-5-5-5-4-4-4-4-|
E|-2-4-4-4-4-5-5-5-5-|-4-4-4-4-7-7-7-7-|-4-4-4-4-5-5-5-5-|-4-4-4-4-3-3-3-2-2-2-2-|
   . . . . . . . . .   . . . . . . . .   . . . . . . . .   . . . . . . . . . . .
 

Lead Section A

 Voice 1
 (Michael)
E|---------------757575-9-|---------------757575-4-|---------------757575-9-|-9-10-9h10p9-7-5-4-|
B|--------555555----------|--------555555----------|--------555555----------|-------------------|
G|-666666-----------------|-666666-----------------|-666666-----------------|-------------------| 
D|------------------------|------------------------|------------------------|-------------------| 
A|------------------------|------------------------|------------------------|-------------------|
E|------------------------|------------------------|------------------------|-------------------|

Voice 2
(Edward)
E|------------------------|------------------------|------------------------|-------------------|
B|---------------757575-9-|---------------757575-4-|---------------757575-9-|-9-10-9h10p9-7-5-4-| 
G|--------666666----------|--------666666----------|--------666666----------|-------------------| 
D|-666666-----------------|-666666-----------------|-666666-----------------|-------------------| 
A|------------------------|------------------------|------------------------|-------------------|
E|------------------------|------------------------|------------------------|-------------------|


Lead Section B

Voice 1
(Michael)
E|-7-9-7h9p7-------------------|-----------------|-7-9-7h9p7-------------------|-7-9-7h9p7-11-|
B|-----------10-9-10-9h10p9----|-----------------|-----------10-9-10-9h10p9----|--------------|
G|--------------------------11-|-10-10h11p10-7-6-|--------------------------11-|--------------| 
D|-----------------------------|-----------------|-----------------------------|--------------| 
A|-----------------------------|-----------------|-----------------------------|--------------|
E|-----------------------------|-----------------|-----------------------------|--------------|

Voice 2
(Edward)
E|-12-14-12h14p12----------------------|-------------------|-12-14-12h14p12----------------------|
B|----------------15-14-15-14h15p14----|-------------------|----------------15-14-15-14h15p14----|
G|----------------------------------16-|-15-15h16p15-12-11-|----------------------------------16-|
D|-------------------------------------|-------------------|-------------------------------------|
A|-------------------------------------|-------------------|-------------------------------------|
E|-------------------------------------|-------------------|-------------------------------------|

|-12-14-12h14p12-16-|
|-------------------|
|-------------------| 
|-------------------| 
|-------------------|
|-------------------|



Outro

E|-----------------|-----------------|-----------------|---------|
B|-----------------|-----------------|-----------------|---------|
G|-----------------|---------7-6-----|---------8-7-----|---------|
D|-----------------|-------------7-6-|-------------8-7-|-----7-6-|
A|-4-2-2-2-4-2-4-4-|-5-4-------------|-6-5-------------|-7-6-----|
E|-4-2-2-2-4-2-4-4-|-----5-4---------|-----6-5---------|---------|



Description:
------------
. -> palm mute
R -> rest
h -> hammer-on
p -> pull-of
\ -> slide down
Добавлено: 20.11.2013
Другие материалы по этой песне:
  • Аккорды и текст

Страница создана 27.03.2012
http://primanota.ru/flotsam-and-jetsam/n-e-terror-chords.htm
Привет, Гость.
Предлагаем пройти революционный курс по гитаре.
Подарок от PrimaNota.Ru, забирай!