PrimaNota.ru - самый крупный в мире бесплатный архив песенных текстов, аккордов, табулатур и нот


Flotsam And Jetsam - Destructive Signs - текст песни, таба, видео

Регистрация Запомнить меня
Войти через:  Facebook Google Twitter Vk Yandex Mail.ru

Flotsam And Jetsam - Destructive Signs - текст песни, таба, видео

Печатать
Просмотров: 53
Уроки эстрадного вокала в Санкт-Петербурге
-------------------------------------------------------------------------------
                     Destructive Signs - Flotsam and Jetsam
-------------------------------------------------------------------------------
Tabbed by:kevinbrafford
E-mail:kevinbrafford@yahoo.com

Tuning: EADGBE (Standard)

I've included track times to help you follow since the whole thing cannot just be followed in order obviously 
with repeats that are not shown...you must listen to it, but the parts are shown below.  Enjoy!  

   Intro and verses 10x  
   d   u d u d   d u d u  u   :33(strum chords on C and C#)
e|-----0-0-0-2------pm-0--0-|------------------------------------|
B|-----0-0-0-0---3-3-3-3--0-|-1---2----3333----------------------|
G|-0---0-0-0-0---2-2-2-2----|-0---1----0000----------------------|
D|-2-------------0-0-0------|-2---3----0000----------------------|
A|-2------------------------|-3---4------------------------------|
E|-0------------------------|----------3333-5-0------------------|

   1:07    P.M-----    PM                     PM
e|---------------------------------------------------------------|
B|---------------------------------------------------------------|
G|-5---6----------------------------------------------7-7\5--5---|
D|-5---6------------2-----5---4---2------555-7---2----7-7\5--5---|
A|-3---4------------2-----5---4---2------555-7---2----5-5\3--3---|
E|---------3333-5-0-0---0-3---2---0------333-5-0-0---------------|

                       PM               1:35 (Acoustic lick)
e|---------------------------------------------------------------|
B|-----------------------------------------------------12--------|
G|-(5)----------5-5/7-7---------------------------11-12----------|
D|-(5)----------5-5/7-7---2---(2)---------11-12-14---------------|
A|-(3)----------3-3/5-5---2---(2)-------14-----------------------|
E|----------------------0-0---(0)--------------------------------|
                
e|--------------12-----------------------------------------------|
B|-15-13-12------------------------------------------------------|
G|---------------------------------------------------------------|
D|---------------------------------------------------------------|
A|---------------------------------------------------------------|
E|---------------------------------------------------------------|

    2nd Chorus Ending     2:31(solo rhythm)¼ bends(subtle)
e|---------------------------------------------------------------|
B|---------------------------------------------------------------|
G|-(5)----------5-5/7-5-4-4-----------5--------------------------|
D|-(5)----------5-5/7-5-4-4-----7-----5--------------------------|
A|-(3)----------3-3/5-3-2-2-----7---0-3--------------------------|
E|------------------------------5----------3b-2b-0---------------|

e|---------------------------------------------------3-----------|
B|---------------------------------------------------3-----------|
G|-4---------5--------------------------------------00--2--------|
D|-4----7----5----------2----------2----------2-----00--2--2-----|
A|-2----7----3----------2----------2----------2---------0--2-----|
E|------5---------3b-2b-0----3b-2b-0----3b-2b-0-----33-----0-----|

   2:33 Acoustic Solo
e|------------------------------------7--------------------------|
B|-----------------------7-----------x--10-8-7-------------------|
G|-9-7-9\7-7-----7-----9---7-9------x---------9p7----------------|
D|-----------7h9---7---------------x-------------9h10p9p7h9------|
A|---------------------------------------------------------------|
E|---------------------------------------------------------------|
e|---------------------------------------------------------------|
B|---------------------------------------------------------------|
G|--------9----9h11h12p11p9-11~~~----------11-12-11--------------|
D|-9h11h12---12-------------------14-12-14----------14\12-14-----|
A|---------------------------------------------------------------|
E|---------------------------------------------------------------|

e|---------------------------------------------------------------|
B|---------------------------------------------------------------|
G|----------------------------12-11-12-------------------9-11----|
D|--------------12-11----11------------14-12-14------------------|
A|-14-12--------------14-----------------------12-11-12----------|
E|-------15-14---------------------------------------------------|
                                                     Solo end 2:53
e|---------------------------------------------------------------|
B|------13-12-13---------------------------12--------------------|
G|-----------------12-11-12----12-11-12-14----14-12-11-----------|
D|-13/14-----------------------------------------------14--------|
A|---------------------------------------------------------------|
E|---------------------------------------------------------------|

   3:03 (Acoustic lick)
e|-------------------------12------------------------------------|
B|--------------12-13-12-----12----------------------------------|
G|-----11-12-14----------------12-11-----9/11-7-7h9--------------|
D|---14-----------------------------14---------------------------|
A|-14------------------------------------------------------------|
E|---------------------------------------------------------------|

  -ive signs...... 3rd chorus at 3:58
e|---------------------------------------------------------------|
B|---------------------------------------------------------------|
G|-5--7----------------------------------------------------------|
D|-5--7--5--2----------------------------------------------------|
A|-3--5--5--2----------------------------------------------------|
E|-------3--0----------------------------------------------------|


Spit on lost reality
Canived underneath the sun
Had to go and drive the needle
Of my mind right through my heart
Absence of thought disturbs me
I've seen me in a dream!
I've lost me in a dream!

Longing like a new widow
Wanting to rejoin
Force fed dosed on reality
Indian giver be true or trade away
I've liked me in a dream!
I've loved me in a dream!

Tangled web
Quit wasting my time
Why can't I get back
To where I've never been
Let the flesh
Instruct the mind
Destructive signs

Spend my time counting
The snowflakes in my mind
I never show, even though
You know I know the way
I know the way
I've seen me in a dream!
I've lost me in a dream!

Tangled web
Quit wasting my time
Why can't I get back
To where I've never been
Let the flesh
Instruct the mind
Destructive signs

Sitting here waiting
For myself
I'm late again
That's always certain
As long as I make it back
Make it back
I'm living me in a dream!
I'm lost me in a dream!

Tangled web
Quit wasting my time
Why can't I get back
To where I've never been
Let the flesh
Instruct the mind
Destructive signs

Tangled web
Quit wasting my time
Why can't I get back
To where I've never been
Let the flesh
Instruct the mind
Destructive signs

Let the flesh instruct the mind
Добавлено: 25.06.2016
Другие материалы по этой песне:
  • Аккорды и текст

Страница создана 09.04.2012
http://primanota.ru/flotsam-and-jetsam/destructive-signs-chords.htm
Привет, Гость.
Предлагаем пройти революционный курс по гитаре.
Подарок от PrimaNota.Ru, забирай!