PrimaNota.ru - самый крупный в мире бесплатный архив песенных текстов, аккордов, табулатур и нот


Flotation Toy Warning - Fire Engine On Fire Part Ii - аккорды и текст, видео

Регистрация Запомнить меня
Войти через:  Facebook Google Twitter Vk Yandex Mail.ru

Flotation Toy Warning - Fire Engine On Fire Part Ii - аккорды и текст, видео

Печатать
Просмотров: 76
Fire Engine On Fire Part Ii
Flotation Toy Warning
Organ intro: Am  Em/G  Am/F  Em/G

Verse: C  G  Am  F7M  

 C
 I have the tapes
                      G
 I have the plan of a clockwork man
        Am
 He was happy to walk
                F7M  
 Where I always ran
         
          C
 When I'm orchestrated, automated, decimated, regulated
G
 From three folls' creek
      Am                                F7M  
 From underground by a despot man and a clown

 
 C                                    G
 If you choose to walk instead with a clockwork man
        Am                         F7M  
 Map of warm roads in his concrete hand
          C
 Tell me, does he miss reeling?

 Does he miss falling?
 G
 Can he take you where the boom bands play?
 Am
 When you're underground

 Can he read the sounds
 F7M  
 And chase the Hakken-Kraks away?

Solo (picked):
  Am       Em/G     Am/F    Em/G      Am     Em/G    Am/F    Em/G
e|-------------------------------------8--7-8-7-------5--7-8-7-----|
B|------------------------------------------------5--------------5-|
G|-----------------------------------------------------------------|
D|-10--9-10-9--------7--9-10-9-------------------------------------|
A|--------------7----------------7---------------------------------|
E|-----------------------------------------------------------------|

Slide (listen for exact timing and pitch):
               C               G             Am            F7M  
e|-////////////12//15----12/17\15\\\12----17\15\12\8---12\8\7^\\5//|
B|-----------------------------------------------------------------|
G|-----------------------------------------------------------------|
D|-----------------------------------------------------------------|
A|-----------------------------------------------------------------|
E|-----------------------------------------------------------------|
Добавлено: 16.06.2016
Другие материалы по этой песне:
  • Аккорды и текст

Страница создана 16.06.2016
http://primanota.ru/flotation-toy-warning/fire-engine-on-fire-part-ii-chords.htm
Привет, Гость.
Предлагаем пройти революционный курс по гитаре.
Подарок от PrimaNota.Ru, забирай!