PrimaNota.ru - самый крупный в мире бесплатный архив песенных текстов, аккордов, табулатур и нот


The Florida Boys - Love Lifted Me - таба, видео

Регистрация Запомнить меня
Войти через:  Facebook Google Twitter Vk Yandex Mail.ru

The Florida Boys - Love Lifted Me - таба, видео

Печатать
Просмотров: 36
-------------------------------------------------------------------------------
                             LOVE LIFTED ME - The Florida Boys
-------------------------------------------------------------------------------
Tabbed by: Tuck
Made popular by the Jack Black film "Bernie". Great chickin pickin opening.
I'm tabbing way to play it lower on the neck. There's a method that's mostly 
between frets 12 and 15 but I think it sounds more accurate to play it lower.

I can tab out the other version if folks are interested.

Tuning: Standard
Play as fast as you can
e|-------1---4-6b-6b-6b-6b-6b-6b-|-7/8---------------------------------------|
B|--1-3--------------------------|-----9/10----------------------------------|
G|-------------------------------|----------10-------------------------------|
D|-------------------------------|-------------10-8--------------------------|
A|-------------------------------|------------------11-8h10------------------|
E|-------------------------------|-------------------------------------------|

e|-8-------------------|--3---------------|-------------------|--------------|
B|---10/11-9/10--------|----6p5p3---------|-------------------|--------------|
G|--------------10-7\5-|----------5-3p2h3-|-5-3-2-------------|--------------|
D|---------------------|------------------|-------5-3---------|-----3--------|
A|---------------------|------------------|-----------5-3-----|-3-5----------|
E|---------------------|------------------|---------------5-1-|--------------|

If someone wants to do chords, be my guest. To me they sound a little more complicated 
than the I-V-I-IV chords I see out there.

************************************

| /   slide up
| \   slide down
| h   hammer-on
| p   pull-off
| ~   vibrato
| +   harmonic
| x   Mute note
| b   Bend
| pb  Pre-bend
| br  Bend release
| pbr Pre-bend release
| brb Bend release bend

************************************
Добавлено: 02.01.2016
Другие материалы по этой песне:
  • Аккорды и текст

Страница создана 02.01.2016
http://primanota.ru/florida-boys/love-lifted-me-chords.htm
Привет, Гость.
Предлагаем пройти революционный курс по гитаре.
Подарок от PrimaNota.Ru, забирай!