PrimaNota.ru - самый крупный в мире бесплатный архив песенных текстов, аккордов, табулатур и нот


Florence The Machine - Various Storms And Saints - аккорды и текст, видео

Регистрация Запомнить меня
Войти через:  Facebook Google Twitter Vk Yandex Mail.ru

Florence The Machine - Various Storms And Saints - аккорды и текст, видео

Печатать
Просмотров: 116
Авторы: Florence Welch, Markus Dravs

Various Storms And Saints
Florence The Machine
//Song: Various Storms & Saints
//Artist: Florence and the Machine
//Album: How Big How Blue How Beautiful(2015)

//Capo 1 - Chords relative to the capo

Intro: 
Dsus2 Am/C B7 Am

e|-----0--------0-------0--------0-------0--------0-------0--------0----|
B|----------------------------------------------------------------------|
G|---2---2----2---2---2---2----2---2---2---2----2---2---2---2----2---2--|
D|-0--------------------------------------------------------------------|
A|------------------3----------------2----------------0-----------------|
E|----------------------------------------------------------------------|

e|-------------------------------------------0-----0---|
B|-----0---------0-------------------------0---0---0---|
G|-----------------------2-------2---------------2-1---|
D|---2---2-----2---2---0---0---0---0-----2---------2---|
A|-------------------------------------2-----------2---|
E|-3---------3-------1---------------0-------------0---|

e|----------------------------1--------------|
B|-------1------------1-----3---------3-1----|
G|-----2----0h2-----2-----2---------0--------|   -repeat this with slight variations 
D|---2------------2-----0---------2----------|
A|-0------------0----------------------------|
E|------------------------------0------------|

                  G6     FM7                 Esus4 E
And the air was full of various storms and saints



                Am            Dm              Em
Prayed in the streets as the banks began to break



                 Am            Dm                           Em
And I'm in the throat of it, somewhere in the belly of the beast
                   Am               Dm                  Em
But you took your toll on me, so I gave myself over willingly
           Am                      Dm                                   Em
You got a hold of me, I don't know how I don't just stand outside and scream
      Dm                        Am
I am teaching myself how to be free 

Am                  
  The monument of a memory, you tear it down in your head
Dm                              Em   Dm                         Em      
  Don't make the mountain your enemy, get out, get up there instead 
Am
  You saw the stars out in front of you, too tempting not to touch
Dm                     Em        Dm                    Em       Dm
  But even though it shocked you, something's electric in your blood  

                       C          Am                       G                
And people just don't tire themselves, I'm calling life - lost
Dm                      C         G
  If you could just forgive yourself

Am
  But I see you stumble, feet give way
Dm                            Em
  Outside the world seems a violent place
Am
  But you had to have him, and so you did
Dm                           Em
  Some things you let go in order to live
Am
  While all around you the buildings sway
Dm                  Em
  Singing our love made us this way
Am
  I know you're bleeding, but you'll be ok
Dm                        Em
  Hold on to your heart, you'll keep it safe
F                            Em         Am
  Hold on to your heart, don't give it away

Am
  You'll find a rooftop to sing from, find a hallway to dance
Dm                           Em        Dm                            Em
  You don't need no edge to climb from, your heart is there, it's in your hands
Am
  I know it seems like forever, I know it seems like an age
Dm                         Em  Dm              Em        Dm
  But one day this will be over, I swear it's not so far away

                       C          Am                       G                
And people just don't tire themselves, I'm calling life - lost
Dm                      C         G
  If you could just forgive yourself

Am
  But I see you stumble, feet give way
Dm                            Em
  Outside the world seems a violent place
Am
  But you had to have him, and so you did
Dm                           Em
  Some things you let go in order to live
Am
  While all around you the buildings sway
Dm                  Em
  Singing our love made us this way
Am
  I know you're bleeding, but you'll be ok
Dm                        Em
  Hold on to your heart, you'll keep it safe
F                Em   Am
  Hold on to your heart
Добавлено: 02.03.2016
Другие материалы по этой песне:
  • Аккорды и текст

Страница создана 02.03.2016
http://primanota.ru/florence-machine/various-storms-and-saints-chords.htm
Привет, Гость.
Предлагаем пройти революционный курс по гитаре.
Подарок от PrimaNota.Ru, забирай!