PrimaNota.ru - самый крупный в мире бесплатный архив песенных текстов, аккордов, табулатур и нот


Flor-de-lis - Todas As Ruas Do Amor - таба, видео

Регистрация Запомнить меня
Войти через:  Facebook Google Twitter Vk Yandex Mail.ru

Flor-de-lis - Todas As Ruas Do Amor - таба, видео

Печатать
Просмотров: 107
Уроки эстрадного вокала в Санкт-Петербурге
Ok, so this is my first tab. I only registered here at Ultimate Guitar because I wanted 
share this awesome song! Everyone with a little knowledge in music can find out how to 
this song, but I decided to help the newbies xD

Anyway, this is a Portuguese Song, that appeared in Eurovision 2009 (btw, I am 
xD)

Intro

e|-----------3-----------------3----------------3------------------3------------|
B|--------3-----3-----------3-----3-----------3----3------------3-----3---------|
G|-----0-----------------0-----------------0-----------------0------------------|
D|------------------------------------------------------------------------------|
A|------------------------------------------------------------------------------|
E|--3-----------------3-----------------2----------------2----------------------|

e|----------3---------------3------------------3----------------2---------------|
B|-------3----3----------3----3-------------1----1------------3---3-------------|
G|-----0---------------0-----------------0-----------------2--------------------|
D|------------------------------------------------------0-----------------------|
A|-----------------------------------3------------------------------------------|
E|--0---------------0-----------------------------------------------------------|


Then its the same thing for the whole song.

The lyrics are

Se sou tinta
Tu és tela
Se sou chuva
És aguarela
Se sou sal
És branca areia
Se sou mar
És maré cheia
Se sou céu
És nuvem nele
Se sou estrela
És de encantar
Se sou noite
És luz para ela
Se sou dia
És o luar

Sou a voz
Do coração
Numa carta
Aberta ao mundo
Sou o espelho
D'emoção
Do teu olhar
Profundo
Sou um todo
Num instante
Corpo dado
Em jeito amante
Sou o tempo
Que não passa
Quando a saudade
Me abraça

Beija o mar
O vento e a lua
Sou um sol
Em neve nua
Em todas as ruas
Do amor
Serás meu
E eu serei tua

Se sou tinta
Tu és tela
Se sou chuva
És aguarela
Se sou sal
És branca areia
Se sou mar
És maré cheia
Se sou céu
És nuvem nele
Se sou estrela
És de encantar
Se sou noite
És luz para ela
Se sou dia
És o luar

Beija o mar
O vento e a lua
Sou um sol
Em neve nua
Em todas as ruas
Do amor
Serás meu
E eu serei tua
Добавлено: 29.07.2012
Другие материалы по этой песне:

Страница создана 10.03.2012
http://primanota.ru/flor-de-lis/todas-as-ruas-do-amor-chords.htm
Привет, Гость.
Предлагаем пройти революционный курс по гитаре.
Подарок от PrimaNota.Ru, забирай!