PrimaNota.ru - самый крупный в мире бесплатный архив песенных текстов, аккордов, табулатур и нот


Flop - Anne - таба, видео

Регистрация Запомнить меня
Войти через:  Facebook Google Twitter Vk Yandex Mail.ru

Flop - Anne - таба, видео

Печатать
Просмотров: 63
Flop:
http://en.wikipedia.org/wiki/Flop_(band)
http://www.angelfire.com/sk/seattlebands/flop.html

this is a rockin little song that has a good amount of parts for being less than 
two minutes long. these are just the power chords. there are lot of a cool little 
lead things going on throughout the song but it still sounds pretty good without 
them. also i recommend trying this acoustic as it also sounds pretty groovy. let's get started!

intro:
E||-------------||
B||-------------||
G||--2/9--------||
D||-------------||
A||-------------||
E||-------------||
play that lil slide and let it feedback

then bust into this (at 0:13):
E||-----------------------||
B||-----------------------||
G||-----------------------||
D||--6--6--6--7--7--7--7--||
A||--6--6--6--7--7--7--7--||
E||--4--4--4--5--5--5--5--||

E||--------------------------|--------------------------||
B||--------------------------|--------------------------||
G||--9--9--9--9--9--9--9--9--|--------------------------||
D||--9--9--9--9--9--9--9--9--|--7--7--7--7--7--7--7--7--||
A||--7--7--7--7--7--7--7--7--|--7--7--7--7--7--7--7--7--||
E||--------------------------|--5--5--5--5--5--5--5--5--||

E||--------------------------|--------------------------||
B||--------------------------|--------------------------||
G||--9--9--9--9--------------|--6--6--6--6--------------||
D||--9--9--9--9--6--6--6--6--|--6--6--6--6--7--7--7--7--||
A||--7--7--7--7--6--6--6--6--|--4--4--4--4--7--7--7--7--||
E||--------------4--4--4--4--|--------------5--5--5--5--|| (x3)

for the last time play this:
E||--------------------------|--------------------------||
B||--------------------------|--------------------------||
G||--9--9--9--9--------------|--4--4--4--4--4--4--4--4--||
D||--9--9--9--9--6--6--6--6--|--4--4--4--4--4--4--4--4--||
A||--7--7--7--7--6--6--6--6--|--2--2--2--2--2--2--2--2--||
E||--------------4--4--4--4--|--------------------------||

transition part:
B||-----------------------|
G||--9--9--9--9--9--8--6--|
D||--9--9--9--9--9--8--6--|
A||--7--7--7--7--7--6--4--|
E||-----------------------|

"i always wanted you to be there" part: (@ 0:33 seconds)
E||--------------------------|--------------------------||
B||--------------------------|--------------------------||
G||--4--4--4--4--4--4--4--4--|--------------9--9--9--9--||
D||--4--4--4--4--4--4--4--4--|--5--5--5--5--9--9--9--9--||
A||--2--2--2--2--2--2--2--2--|--5--5--5--5--7--7--7--7--||
E||--------------------------|--3--3--3--3--------------|| (x2)

then the last time its this:
E||--------------------------|--------------------------|
B||--------------------------|--------------------------|
G||--4--4--4--4--4--4--4--4--|--------------------------|
D||--4--4--4--4--4--4--4--4--|--5--5--5--5--5--5--5--5--|
A||--2--2--2--2--2--2--2--2--|--5--5--5--5--5--5--5--5--|
E||--------------------------|--3--3--3--3--3--3--3--3--|

--------------------------|--------------------------|
--------------------------|--------------------------|
--------------------------|--------------------------|
--5--5--5--5--5--5--5--5--|--2--2--2--2--2--2--2--2--|
--5--5--5--5--5--5--5--5--|--2--2--2--2--2--2--2--2--|
--3--3--3--3--3--3--3--3--|--0--0--0--0--0--0--0--0--|

--------------------------||
--------------------------||
--------------------------||
--2--2--2--2--2--2--2--2--||
--2--2--2--2--2--2--2--2--||
--0--0--0--0--0--0--0--0--||

then back to the first progression and do it all over again repeating parts as 
necessary. end with a b5.
happy jamming my friends.
Добавлено: 28.08.2013
Другие материалы по этой песне:
  • Аккорды и текст

Страница создана 28.08.2013
http://primanota.ru/flop/anne-chords.htm
Привет, Гость.
Предлагаем пройти революционный курс по гитаре.
Подарок от PrimaNota.Ru, забирай!