PrimaNota.ru - самый крупный в мире бесплатный архив песенных текстов, аккордов, табулатур и нот


Flogging Molly - Between A Man And A Woman - аккорды и текст, бас-таба, видео

Регистрация Запомнить меня
Войти через:  Facebook Google Twitter Vk Yandex Mail.ru

Flogging Molly - Between A Man And A Woman - аккорды и текст, бас-таба, видео

Печатать
Просмотров: 225
Between A Man And A Woman
Flogging Molly
Song: Between a Man and a Woman
Artist: Flogging Molly
Album: Float (2008)

hey there flogging molly fans! this is a quite easy song again in the key of Am.
Play all chords as open chords (as far as possible of course)

all the chords you need:
Am : x02210
Em : 022000
G  : 3x0003
D  : xx0232
D7 : xx0212
C  : x32010 (or if you find it more comfortable: x3555x)
Bm : x24432


_____
Intro (only electric guitar)
^^^^^
e|---------------------------|
B|-1--1---0-0-0-1--1---0-0-0-|
G|-2--2---0-0-0-2--2---0-0-0-|   repeat 4x
D|-2--2---0-0-0-2--2---0-0-0-|
A|---------------------------|
E|---------------------------|

__________
Intro Pt.2 (0:06) electric guitar + acoustic guitar
^^^^^^^^^^
Am - Em - G - D
Am - Em - D - D7


the strumming rhytmn is like this (it variates a bit but that's the main thing):

   v   v    ^ v ^  v   v    ^ v ^
e|-----0----0-0-0------0----0-0-0--|
B|(1)--1----1-1-1-(1)--1----1-1-1--|
G|-2---2----2-2-2--2---2----2-2-2--|
D|-2---2----2-2-2--2---2----2-2-2--|
A|-0---0---(0-0-0)-0---0---(0-0-0)-|
E|---------------------------------|
       >               >

(v is a downstroke, ^ an upstroke and > is an accent)


_______
Verse 1 (0:22) it's the same as the intro :)
^^^^^^^
Am                       Em
     Between a man and a woman
G                 D*
     Life begins again
Am                    Em
     Between love and confusion there lies
D         D7
     only pain

to make it sound even better, you can fill in a Dsus4 instead of a plain D, where I made 
*. the acoustic guitar on the track does it.
do it like this:

   D             Dsus4
e|-2--2----2-2-2-3--3----3-3-3-|
B|-3--3----3-3-3-3--3----3-3-3-|
G|-2--2----2-2-2-2--2----2-2-2-|
D|-0--0----0-0-0-0--0----0-0-0-|
A|-----------------------------|
E|-----------------------------|


______
Chorus (0:36)
^^^^^^
        G
Take my word,
        Em
Heal my soul,
         C
Shake my pride,
           D
Do not let go
            G
Give me the sun
              Em
And the moon above
                    C
If the stars should fall
            D
Only heaven knows

______
Bridge (0:52)
^^^^^^
D7                        Am
      Between a man and a woman
     D                        Em
It's everything or nothing at all
C             D          C          D 
Добавлено: 03.04.2012
Другие материалы по этой песне:
  • Аккорды и текст

Страница создана 27.03.2012
http://primanota.ru/flogging-molly/between-a-man-and-a-woman-chords.htm
Привет, Гость.
Предлагаем пройти революционный курс по гитаре.
Подарок от PrimaNota.Ru, забирай!