PrimaNota.ru - самый крупный в мире бесплатный архив песенных текстов, аккордов, табулатур и нот


Flobots - Moon - бас-таба, видео

Регистрация Запомнить меня
Войти через:  Facebook Google Twitter Vk Yandex Mail.ru

Flobots - Moon - бас-таба, видео

Печатать
Просмотров: 165
-------------------------------------------------------------------------------
			     MOON - Flobots
-------------------------------------------------------------------------------

Tabbed By: Jemenem
email:h_jemenem@hotmail.com

Hey, Uber cliche, but first tab I've posted, would love to know what you think. I've 
playing bass for about a year, casually, and yeah.. so here it is.

Tuning: EADG (Standard)

Intro 0:44 (Same as line #2, just stopped short)
G---------------------------------------------------|
D---------------------------------------------------|
A-----------------5h7p5-0-5h7p5-------------------5-|
E-5p7h5-0-5p7h5-------------------5p7h5-0-5p7h5-----|

Line #1 0:53
G------------------------2----2------|  ]
D-----2-----2----------0----0--0---0-|  ]
A---0-----0--0---0---3-----3-----3---|  ]
E-3------3-----3---------------------|  ]
                                        ] X2
G------------------------2-----------|  ]
D-----2-----2----------0----0-55--55-|  ]
A---0-----0--0---0---3-----3---------|  ]
E-3------3-----3---------------------|  ]

Line #2 1:13
G------------------------------------------------------------------| X2
D------------------------------------------------------------------| X2
A-----------------5h7p5-0-5h7p5-------------------5h7p5-0-44-44----| X2
E-5p7h5-0-5p7h5-------------------5p7h5-0-5p7h5--------------------| X2

G-------------------|
D-------------------|
A-----------------5-|
E-5p7h5-0-5p7h5-----|

@1:47 Line #1 x2
@2:07 Line #2 x4
@2:46 Line #1 x---Until Fadeout

| /  slide up
| \  slide down
| h  hammer-on
| p  pull-off
| ~  vibrato
| +  harmonic
| x  Mute note


Hope it works for ya!
===============================================================================
Добавлено: 29.06.2012
Другие материалы по этой песне:
  • Аккорды и текст

Страница создана 29.06.2012
http://primanota.ru/flobots/moon-chords.htm
Привет, Гость.
Предлагаем пройти революционный курс по гитаре.
Подарок от PrimaNota.Ru, забирай!