PrimaNota.ru - самый крупный в мире бесплатный архив песенных текстов, аккордов, табулатур и нот


Floater - Cinema - таба, видео

Регистрация Запомнить меня
Войти через:  Facebook Google Twitter Vk Yandex Mail.ru

Floater - Cinema - таба, видео

Печатать
Просмотров: 165
Tunning 
Robert Wynia - Bass: (EbAbDbGb)
David Amador – Guitar: (EbAbDbGbBbEb)
Cinema
Intro
*Flesh Disolved in Acid of light!*
 Guitar  
e|---------------|-----------------| 
B|---------------|-----------------|
G|---------------|-----------------| 
D|-3--—-—--------|----------------3| 
A|-3-------------|----------------3|
E|-1-------------|--2-------------1|
                   
Bass
G|---------------|------------------| 
D|---—-—---------|------------------| 
A|---------------|------------------|
E|-1-------------|--2--------------1|
   
[Nine hundred hours of hallucinatory intoxication.]
[Nine hundred hours of hallucinatory intoxication.]

Guitar
e|---------------|-----------------| 
B|---------------|-----------------|
G|---------------|-----------------| 
D|---—-—---------|--3----4---------| 
A|---------------|--3----4---------|
E|---------------|--1----2---------|
Bass
G|---------------|---------------| 
D|---—-—--------|----------------| 
A|--------------|----------------|
E|--0h2s14------|-14-----2-------|

Pre-Chorus  
   (The four scratches in-between each phrase are very important.)
Guitar
e|---------------------|----------------------------| 
B|---------------------|----------------------------|
G|---------------------|----------------------------| 
D|-3-3-xxxx—-—3-3-xxxx-|-3-3-xxxx---3-3-xxxx--------| 
A|-3-3-xxxx---3-3-xxxx-|-3-3-xxxx---3-3-xxxx--------|
E|-1-1-xxxx---1-1-xxxx-|-1-1-xxxx---1-1-xxxx--------|
Bass
G|---------------|-----------------| 
D|---—-—---------|-----------------| 
A|---------------|-----------------|
E|-1-1-----1-1---|-1-1-----1-1-----|


Guitar
e|-------------------|----------------| 
B|-------------------|----------------|
G|-------------------|----------------| 
D|-4-4-xxxx—4-4--xxxx|xxxxxxxx--------| 
A|-4-4-xxxx-4-4--xxxx|xxxxxxxx--------|
E|-2-2-xxxx-2-2--xxxx|xxxxxxxx--------|
Bass
G|---------------|-----------------| 
D|---—-—---------|-----------------| 
A|---------------|-----------------|
E|-2-2-----2-2---|-----------------|

Chorus 0:12
These four measures are played 14 times with little veration.
Guitar
e|---------------------|----------------------------| 
B|---------------------|----------------------------|
G|---------------------|----------------------------| 
D|-3-3-xxxx—-—3-3-xxxx-|-3-3-xxxx---3-3-xxxx--------| 
A|-3-3-xxxx---3-3-xxxx-|-3-3-xxxx---3-3-xxxx--------|
E|-1-1-xxxx---1-1-xxxx-|-1-1-xxxx---1-1-xxxx--------|
Bass
G|---------------|-----------------| 
D|---—-—---------|-----------------| 
A|---------------|-----------------|
E|-1-1-----1-1---|-1-1-----1-1-----|

Guitar
e|--------------------|----------------------------| 
B|--------------------|----------------------------|
G|--------------------|----------------------------| 
D|-4-4-xxxx—4-4--xxxx-|-4-4-xxxx-4-4---xxxx--------| 
A|-4-4-xxxx-4-4--xxxx-|-4-4-xxxx-4-4---xxxx--------|
E|-2-2-xxxx-2-2--xxxx-|--2-2-xxxx-2-2--xxxx-------|
Bass
G|---------------|-----------------| 
D|---—-—---------|-----------------| 
A|---------------|-----------------|
E|-2-2-----2-2---|-2-2-----4-2-----|

(after the 4th time playing the chorus it changes a little to this) 
Guitar
e|--------------------|----------------------------| 
B|--------------------|----------------------------|
G|--------------------|----------------------------| 
D|-4-4-xxxx—4-4--xxxx-|-4-4-xxxx-6-4---xxxx--------| 
A|-4-4-xxxx-4-4--xxxx-|-4-4-xxxx-6-4---xxxx--------|
E|-2-2-xxxx-2-2--xxxx-|-2-2-xxxx-4-2---xxxx--------|
Bass
G|---------------|-----------------| 
D|---—-—---------|-----------------| 
A|---------------|-----------------|
E|-2-2-----2-2---|-2-2-----4-2-----|


2:06
Verse
Guitar
e|----------------|----------------| 
B|----------------|----------------|
G|----------------|----------------| 
D|-3--—-—---------|--3-4-----------| 
A|-3--------------|--3-4-----------|
E|-1--------------|--1-2-----------|
Bass
G|---------------|-----------------| 
D|---—-—---------|-----------------| 
A|---------------|-----------------|
E|-0-1-1-0-1-1---|-0-2-2-0-2-2-----|

It says, "I welcome you to life."
It says, "I help you up that tree." Ooh!
I break the leash you go mad and unchained, yeah.

Guitar
e|----------------|----------------| 
B|----------------|----------------|
G|----------------|----------------| 
D|-4--—-—---------|--4-3-----------| 
A|-4--------------|--4-3-----------|
E|-2--------------|--2-1-----------|
Bass
G|---------------|-----------------| 
D|---—-—---------|-----------------| 
A|---------------|-----------------|
E|-0-1-1-0-1-1---|-0-2-2-0-2-2-----|

2:23
Heavy Riff 
e|-----------------------| 
B|-----------------------|
G|-----------------------| 
D|-3-3-4—6-6—4-3-3-------| 8X
A|-3-3-4-4-4-4-3-3-------|
E|-1-1-2-4-4-2-1-1-------|
Bass
G|----------------| 
D|---—-—----------| 8X
A|----------------|
E|-1-1-2-4-4-2-1-1|


2:40

Verse
(same as first Verse, with new lyrics)
Guitar
e|----------------|----------------| 
B|----------------|----------------|
G|----------------|----------------| 
D|-3--—-—---------|--3-4-----------| 
A|-3--------------|--3-4-----------|
E|-1--------------|--1-2-----------|
Bass
G|---------------|-----------------| 
D|---—-—---------|-----------------| 
A|---------------|-----------------|
E|-0-1-1-0-1-1---|-0-2-2-0-2-2-----|

Ohhhh....
Ahhhhhh.....
And if you follow me,
know the road will end.
But if you follow me,
break but never bend.
Guitar
e|----------------|----------------| 
B|----------------|----------------|
G|----------------|----------------| 
D|-4--—-—---------|--4-3-----------| 
A|-4--------------|--4-3-----------|
E|-2--------------|--2-1-----------|
Bass
G|---------------|-----------------| 
D|---—-—---------|-----------------| 
A|---------------|-----------------|
E|-0-1-1-0-1-1---|-0-2-2-0-2-2-----|

Break! (yell before the Chorus, if you've listened to the song you will understand)
3:18

(guitar is silent for about 3 measures then joins in)
Guitar
e|---------------|-----------------| 
B|---------------|-----------------|
G|---------------|-----------------| 
D|---—-—---------|-----------------| 
A|---------------|-----------------|
E|---------------|-----------------|

Bass
G|---------------|-----------------| 
D|---—-—---------|-----------------| 
A|---------------|-----------------|
E|-0-1-1-0-1-1---|-0-2-2-0-2-2-----|

Chorus
Guitar
e|---------------------|----------------------------| 
B|---------------------|----------------------------|
G|---------------------|----------------------------| 
D|-3-3-xxxx—-—3-3-xxxx-|-3-3-xxxx---3-3-xxxx--------| 
A|-3-3-xxxx---3-3-xxxx-|-3-3-xxxx---3-3-xxxx--------|
E|-1-1-xxxx---1-1-xxxx-|-1-1-xxxx---1-1-xxxx--------|
Bass
G|---------------|-----------------| 
D|---—-—---------|-----------------| 
A|---------------|-----------------|
E|-1-1-----1-1---|-1-1-----1-1-----|

Guitar
e|--------------------|---------------------------| 
B|--------------------|---------------------------|
G|--------------------|---------------------------| 
D|-4-4-xxxx—4-4--xxxx-|-4-4-xxxx-4-4---xxxx-------| 
A|-4-4-xxxx-4-4--xxxx-|-4-4-xxxx-4-4---xxxx-------|
E|-2-2-xxxx-2-2--xxxx-|--2-2-xxxx-2-2--xxxx-------|
Bass
G|---------------|-----------------| 
D|---—-—---------|-----------------| 
A|---------------|-----------------|
E|-2-2-----2-2---|-2-2-----4-2-----|

(after the 4th time playing the chorus it changes a little to this) 
Guitar
e|--------------------|----------------------------| 
B|--------------------|----------------------------|
G|--------------------|----------------------------| 
D|-4-4-xxxx—4-4--xxxx-|-4-4-xxxx-6-4---xxxx--------| 
A|-4-4-xxxx-4-4--xxxx-|-4-4-xxxx-6-4---xxxx--------|
E|-2-2-xxxx-2-2--xxxx-|-2-2-xxxx-4-2---xxxx--------|
Bass

G|---------------|-----------------| 
D|---—-—---------|-----------------| 
A|---------------|-----------------|
E|-2-2-----2-2---|-2-2-----4-2-----|


4:10
Verse
Guitar
e|----------------|----------------| 
B|----------------|----------------|
G|----------------|----------------| 
D|-3--—-—---------|--3-4-----------| 
A|-3--------------|--3-4-----------|
E|-1--------------|--1-2-----------|
Bass
G|---------------|-----------------| 
D|---—-—---------|-----------------| 
A|---------------|-----------------|
E|-0-1-1-0-1-1---|-0-2-2-0-2-2-----|

It says, "I welcome you to life."
It says, "I help you up that tree." Ooh!
I break the leash you go mad and unchained, yeah.

4:29
Heavy Riff 

e|-----------------------| 
B|-----------------------|
G|-----------------------| 
D|-3-3-4—6-6—4-3-3-------| 4X
A|-3-3-4-4-4-4-3-3-------|
E|-1-1-2-4-4-2-1-1-------|
Bass
G|----------------| 
D|---—-—----------| 4X
A|----------------|
E|-1-1-2-4-4-2-1-1|

4:38
Ending
[You want the key?]
Guitar
e|---------------|-----------------| 
B|---------------|-----------------|
G|---------------|-----------------| 
D|-4--—-—-----3--|-----------------| 
A|-4----------3--|-----------------|
E|-2----------1--|-----------------|


Bass
G|---------------|-----------------| 
D|---—-—---------|-----------------| 
A|---------------|-----------------|
E|-2----------1--|-----------------|

[You sure you want to be free?]
[Ha ha ha ha ha ha ha]
Guitar  
e|---------------|-----------------| 
B|---------------|-----------------|
G|---------------|-----------------| 
D|---—-—---------|-3---------------| 
A|---------------|-3---------------|
E|---------------|-1---------------|

Bass  (harmonics)
G|---------------|-----------------| 
D|---—-—7*-------|-----------------| 
A|----7*---------|-----------------|
E|---------------|-1---------------|

[You've been free already.]


Lyrics
-Intro
[Nine hundred hours of hallucinatory intoxication.]
[Nine hundred hours of hallucinatory intoxication.]

People are so full of infection!
People are so full of infection!
Gashing open their empty lives!
Slashing open their empty lives!
They lick the open wound, lick the open wound, lick the open wound, lick it! lick it!

-CHORUS
Through my little fingers, through my little fingers goes,
through my little fingers, through my little fingers it goes,
in my eyes a cinema, in my eyes a cinema,
in my eyes a cinema, in my eyes a cinema.
Sun is touching me, sun is touching me so strange,
sun is touching me, sun is touching me so
Through my little fingers, through my little fingers goes,
through my little fingers, I carry it beneath my tongue.

Yeah-yeah

Through my little fingers, through my little fingers goes,
through my little fingers, through my little fingers it goes,
in my eyes a cinema, in my eyes a cinema,
in my eyes a cinema, in my eyes a cinema.
Sun is touching me, sun is touching me so strange,
sun is touching me, sun is touching me so
Through my little fingers, through my little fingers goes,
through my little fingers, I carry it beneath my eye.

-Verse
It says, "I welcome you to life."
It says, "I help you up that tree." Ooh!
I break the leash you go mad and unchained, yeah.

Yeah-yeah!

Ohhhh....
Ahhhhhh.....
And if you follow me,
know the road will end.
But if you follow me,
break but never bend.

Break.

-Heavy Riff

[We're all in this together.]
[We've must convince the others.]
[mmrmrmrmrph]
(THX 1138)

-Chorus
Through my little fingers, through my little fingers goes,
through my little fingers, through my little fingers it goes,
in my eyes a cinema, in my eyes a cinema,
in my eyes a cinema, in my eyes a cinema.
Sun is touching me, sun is touching me so strange,
sun is touching me, sun is touching me so
Through my little fingers, through my little fingers goes,
through my little fingers, I carry it beneath my eye.

-Verse
It says, "I welcome you to life."
It says, "I help you up that tree." Ooh!
I break the leash you go mad and unchained, yeah.

Yeah-yeah!
-Ending

[You want the key?]

[You sure you want to be free?]

[Ha ha ha ha ha ha ha]

[You've been free already.]
Добавлено: 22.02.2012
Другие материалы по этой песне:
  • Аккорды и текст

Страница создана 22.02.2012
http://primanota.ru/floater/cinema-chords.htm
Привет, Гость.
Предлагаем пройти революционный курс по гитаре.
Подарок от PrimaNota.Ru, забирай!