PrimaNota.ru - самый крупный в мире бесплатный архив песенных текстов, аккордов, табулатур и нот


Flo Rida - Whisthle - аккорды и текст, видео

Регистрация Запомнить меня
Войти через:  Facebook Google Twitter Vk Yandex Mail.ru

Flo Rida - Whisthle - аккорды и текст, видео

Печатать
Просмотров: 313
Whisthle
Flo Rida
-----------------------------------------------------------------------------
                             WHISTHLE - Flo Rida
-----------------------------------------------------------------------------

Tabbed by: Latotoche
E-mail: totondelp@yahoo.fr

Tuning: standart
  Am        F         C         G
e|--------------------------------------------------------------------------|
B|----1---------1---------1---------0---------------------------------------|
G|--2---2-----2---2-----0---0-----0---0-------------------------------------|
D|----------3---------------------------------------------------------------|
A|0-------------------3-----------------------------------------------------|
E|------------------------------3-------------------------------------------|

                Am            F
Can you blow my whistle baby, whistle baby
C       G
Let me know
               Am              F
Girl i'm gonna show you how to do it
       C           G
And we start real slow
         Am               F
You just put your lips together
        C          G
And you come real close
                Am             F                 C
Can you blow my whisthle baby, wisthle baby
G
Here we go

[whisthles]
                                                                 


   Am           F             C             G
e|-0------------0-------------0-------------0-------------------------------|
B|-1------------1-------------1-------------0-------------------------------|
G|-2------------2-------------0-------------0-------------------------------|
D|-2------------3-------------2-------------0-------------------------------|
A|-0------------0-------------3-------------2-------------------------------|
E|-0------------0-------------0-------------3-------------------------------|

i'm betting you like people
and i'm betting you love freak mode
and i'm betting you like girls that give love and girls
That stroke your little ego
i bet yo i'm guilty yo honor
but that's how we live in my genre
when i hell i pay rottweiler
there's only one flo, and one rida
i'm a damn shame
order more champagne, pullin them hamstring
tryna put it on ya
bet your lips spin back around corner
slow it down baby take a little longer

can you blow my whistle baby, whistle baby
let me know
girl i'm gonna show you how to do it
and we start real slow
you just put your lips together
and you come real close
can you blow my whistle baby, whistle baby
here we go

whistle baby, whistle baby,
whistle baby, whistle baby

it's like everywhere i go
my whistle ready to blow
shorty don't even know
she can get anybody low
permission not approved
it's okay, it's under control
show me soprano, cause girl you can handle
baby we start snagging, you come in part clothes
girl i'm losing wing, my bugatti the same road
show me your perfect pitch,
you got it my banjo
talented with your lips, like you blew out candles
so amusing, now you can make a whistle with the music
hope you ain't got no issue, you can do it
give me the perfect picture, never lose it

can you blow my whistle baby, whistle baby
let me know
girl i'm gonna show you how to do it
and we start real slow
you just put your lips together
and you come real close
can you blow my whistle baby, whistle baby
here we go

whistle baby, whistle baby,
whistle baby, whistle baby

go girl you can work it
let me see your whistle while you work it
i'mma lay it back, don't stop it
cause i love it how you drop it, drop it, drop it, on me
now, shorty let that whistle blow (ohohohoh)
yeah, baby let that whistle blow (ohohohoh)

can you blow my whistle baby, whistle baby
let me know
girl i'm gonna show you how to do it
and we start real slow
you just put your lips together
and you come real close
can you blow my whistle baby, whistle baby
here we go

whistle baby, whistle baby,
whistle baby, whistle baby 
Добавлено: 15.08.2013
Другие материалы по этой песне:
  • Аккорды и текст

Страница создана 15.08.2013
http://primanota.ru/flo-rida/whisthle-chords.htm
Привет, Гость.
Предлагаем пройти революционный курс по гитаре.
Подарок от PrimaNota.Ru, забирай!