PrimaNota.ru - самый крупный в мире бесплатный архив песенных текстов, аккордов, табулатур и нот


Flo Rida - Goof Feeling - таба, видео

Регистрация Запомнить меня
Войти через:  Facebook Google Twitter Vk Yandex Mail.ru

Flo Rida - Goof Feeling - таба, видео

Печатать
Просмотров: 237
This is my First Tab i think its perfect if there are any errors please let me know and 
cut me some slack thankyou  :) by GibsGuitarGirl
Main Lead First ending

E----------------------------------9-7----|
B-7------------------------------------9--|
G---9-9--9-9-9-9---8-8-9-9----------------|
D-----------------------------------------|
A-----------------------------------------|
E-----------------------------------------|

Main Lead second Ending

E-------------------------------9-7---|
B-7---------------------------------9-|
G--9-9--9-9-9-9-----------------------|
D------------------11-11-9-9----------|
A-------------------------------------|
E-------------------------------------|



Chord = C#m E B A


C#m          E           B             A
--4--      -----       --7--        --5--|
--5--      --9--       --7--        --5--|
--6--      --9--       --8--        --6--|
--6--      --9--       --9 --       --7--|
--4--      --7--       --9--        --7--|
-----      -----      --7--         --5--|
Добавлено: 01.12.2013
Другие материалы по этой песне:
  • Аккорды и текст

Страница создана 01.12.2013
http://primanota.ru/flo-rida/goof-feeling-chords.htm
Привет, Гость.
Предлагаем пройти революционный курс по гитаре.
Подарок от PrimaNota.Ru, забирай!