PrimaNota.ru - самый крупный в мире бесплатный архив песенных текстов, аккордов, табулатур и нот


Flip Kowlier - De Grootste Lul Vant Stad - таба, видео

Регистрация Запомнить меня
Войти через:  Facebook Google Twitter Vk Yandex Mail.ru

Flip Kowlier - De Grootste Lul Vant Stad - таба, видео

Печатать
Просмотров: 255
Уроки эстрадного вокала в Санкт-Петербурге
I looked at a few tabs on the internet but none of them was very good. So I made one 
based on the others.
When you listen to the song you will hear some effect like vibratos. Try yo get that in 
songs and it will be nicer then you would just play it without.

This is the intro of the song.
----------------------------------------------------------------|
----------------------------------------------------------------|
----------------------------------------------------------------|
--------------------------------------------8-------------------|
-------------1---------------4----------------------------4---0-|
-2-0-0-4-0-0----2-0-0--4-0-0--- 2-0-0-4-0-0---2-0-0-4-0-0---4---|

You can play it like this too ,if u prefer an own version of the song. This one follows the bass-guitar.

-----------------------------------------------------------------|
-----------------------------------------------------------------|
-----------------------------------------------------------------|
--------------------------------------------8--------------------|
-------------2--------------4------------------------------4---0-|
-5-0-0-5-0-0----3-0-0-3-0-0----5-0-0-5-0-0-----3-0-0-3-0-0---4---|


verse
--------------------------------------|
--------------------------------------|
-6-6-6----------------9-9-9-9-9-9-----|
-6-6-6--6-6-6--7-7-7--9-9-9-9-9-9-----|
-4-4-4--6-6-6--7-7-7--7-7-7-7-7-7-----|
--------4-4-4--5-5-5------------------|

here you go, enjoy
Добавлено: 05.06.2012
Другие материалы по этой песне:
  • Аккорды и текст

Страница создана 13.05.2012
http://primanota.ru/flip-kowlier/de-grootste-lul-vant-stad-chords.htm
Привет, Гость.
Предлагаем пройти революционный курс по гитаре.
Подарок от PrimaNota.Ru, забирай!