PrimaNota.ru - самый крупный в мире бесплатный архив песенных текстов, аккордов, табулатур и нот


Flight Of The Conchords - Leggy Blond - бас-таба, видео

Регистрация Запомнить меня
Войти через:  Facebook Google Twitter Vk Yandex Mail.ru

Flight Of The Conchords - Leggy Blond - бас-таба, видео

Печатать
Просмотров: 106
This is what I would play because there really is no bass, just follow the piano thing...

 
It's really really simple:

G|-------------------------------------------------------------------------|
D|---------------------------------------5---------------------------------|
A|--------------5------------0----3----------------------------------------|
E|--0----3-----------------------------------------------------------------|


But when the real bass comes in it's still really simple:


G|-------------------------------------------------------------------------|
D|-------------------------------------------------------------------------|
A|-------------------------------------------------------------------------|
E|-0------3------5------0--------------------------------------------------|





And then that syth. break I'm not sure what to do there ha..
Добавлено: 21.02.2012
Другие материалы по этой песне:
  • Аккорды и текст

Страница создана 21.02.2012
http://primanota.ru/flight-of-the-conchords/leggy-blond-chords.htm
Привет, Гость.
Предлагаем пройти революционный курс по гитаре.
Подарок от PrimaNota.Ru, забирай!