PrimaNota.ru - самый крупный в мире бесплатный архив песенных текстов, аккордов, табулатур и нот


Flight Of The Conchords - Demon Woman - бас-таба, видео

Регистрация Запомнить меня
Войти через:  Facebook Google Twitter Vk Yandex Mail.ru

Flight Of The Conchords - Demon Woman - бас-таба, видео

Печатать
Просмотров: 110
Авторы музыки: Jemaine Clement, Bret McKenzie
Авторы текста: Jemaine Clement, Bret McKenzie
-------------------------------------------------------------------------------
			     Demon Woman - Flight of the Conchords
-------------------------------------------------------------------------------


Tuning: Standard (EADG)

Main Line A Varation
G|--------------------------------|
D|--------------------------------|
A|--------------------------------|
E|5---5---3-5---0-5-5-3-5---3-3-5-|

Main Line A (Demon woman!)
G|--------------------------------|
D|--------------------------------|
A|--------------------------------|
E|0-5---3-5---0-5-5-3-5---3-3-5---| repeat a few times

Main Line B (...my livestock)
G|--------------------------------|
D|------------------------5-5-7---|
A|--------------------------------|
E|0-5---3-5---0-5-5-3-5-----------| repeat a few times

Turnaround (...meet your familiars!)
G|------------------------------------------------9---9---9---|
D|-------------------------------------7-8-9------------------|
A|-----------------------5-6-7--------------------------------|
E|0-5---3-5---0-5-5-3-5---------------------------------------|

Main Line A Variation (...very well!)
G|--------------------------------|
D|--------------------------------|
A|--------------------------------|
E|5---5---3-5---0-5-5-3-5---3-3-5-|

Main Line A (ahahaha)
G|--------------------------------|
D|--------------------------------|
A|--------------------------------|
E|0-5---3-5---0-5-5-3-5---3-3-5---| repeat a few times

Big Riff
G|------------|------------|-------------------------------|
D|(guitar plays riff here)-|------------------5--7---5-7---|
A|------------|------------|----------5-6-7----------------|
E|------------|5-----------|5-6-7-8------------------------|

Big Riff B
G|---------------------------------------------------------|
D|7-5---------7-5------------------------------------------|
A|----5-6-5-------5-6-5------------------------------------|
E|----------5-----------5-8---8---5/?----------------------|

Main Line C Variation
G|----------------------------------|
D|7---7---5-7-----7-7-5-7---5-5-7---|
A|--------------7-------------------|
E|----------------------------------|

Main Line C
G|----------------------------------|
D|--7---5-7-----7-7-5-7---5-5-7-----|
A|7-----------7---------------------|
E|----------------------------------| repeat a few times

Turnaround 2
G|-------------------------------------------------9---9---9---|
D|--7---5-7-----7-7-5-7-----------------7-8-9------------------|
A|7-----------7-----------5-6-7--------------------------------|
E|-------------------------------------------------------------|

G|9-8-7----------------------------------------------------------------------|
D|------9-8-7----------------------------------------------------------------|
A|------------10-------------------------------------------------------------|
E|---------------------------------------------------------------------------|

After this is difficult to hear/tab so this will sit incomplete for now. There is some 
followed by what sounds like Main Line A. After a little more of that, you come to this:

Big Riff x 3
G|------------------------------|
D|------------------5--7--5-7---|
A|----------5-6-7---------------|
E|5-6-7-8-----------------------|

Big Riff B
G|---------------------------------|
D|7-5---------7-5------------------|
A|----5-6-5-------5-6-5------------|
E|----------5-----------5-8---8---5|

| /  slide up
| \  slide down
| h  hammer-on
| p  pull-off
| ~  vibrato
| +  harmonic
| x  Mute note
| ? indeterminate pitch (when used with / or \, slide up to/down to "nowhere")
===============================================================================
Добавлено: 28.04.2012
Другие материалы по этой песне:
  • Аккорды и текст

Страница создана 28.04.2012
http://primanota.ru/flight-of-the-conchords/demon-woman-chords.htm
Привет, Гость.
Предлагаем пройти революционный курс по гитаре.
Подарок от PrimaNota.Ru, забирай!