PrimaNota.ru - самый крупный в мире бесплатный архив песенных текстов, аккордов, табулатур и нот


Flight Of The Conchords - Brets Dissing Rap - бас-таба, видео

Регистрация Запомнить меня
Войти через:  Facebook Google Twitter Vk Yandex Mail.ru

Flight Of The Conchords - Brets Dissing Rap - бас-таба, видео

Печатать
Просмотров: 113
-------------------------------------------------------------------------------
	      Bret's Dissing Rap - Flight Of The Conchords
-------------------------------------------------------------------------------

Tabbed By : McClounan94
e-mail: lmcclounan@hotmail.com


Tuning: Standard I think

Hey guys, this is my first tab so I'm not sure how good it sounds, if you work out a 
way, please let me know, I'm interested to hear it. Also, I'v only got up to the 'Bass 
so far, But bare with me, i'll get there.

Here is the Link to the song if you want to listen to it www.youtube.com/watch?v=iUSCBnmSWqI

 Eminem, is not very good. | 50 Cent, "              | Snoop Dogg "
G|---------------------------------------------------------------------------|
D|-2-2-2-------------------------------------------------2-2--2--------------|
A|----2--------------------2-0-0------0------0---------------2---------------|
E|----------------------------------------3------3---------------------------|

 MosDef, "      but the Rhymenocerous is very, very good.    Bass Solo.

G|---------------------------------------------------------------------------|
D|---------------------------------------------------------------------------|
A|--2-0-0--0--------------------------------------------2-0------------------|
E|--------3------------------------------------------------------------------|


Ok, So from the 'Bass Solo part I haven't got it, Im still working, I'll try get it up 
soon as possible and if anyone can help me it would be much appreciated as I am new at 
and not sure how good I'm doing

:D
Добавлено: 17.06.2012
Другие материалы по этой песне:
  • Аккорды и текст

Страница создана 17.06.2012
http://primanota.ru/flight-of-the-conchords/brets-dissing-rap-chords.htm
Привет, Гость.
Предлагаем пройти революционный курс по гитаре.
Подарок от PrimaNota.Ru, забирай!