PrimaNota.ru - самый крупный в мире бесплатный архив песенных текстов, аккордов, табулатур и нот


Flight Facilities - Foreign Language - бас-таба, видео

Регистрация Запомнить меня
Войти через:  Facebook Google Twitter Vk Yandex Mail.ru

Flight Facilities - Foreign Language - бас-таба, видео

Печатать
Просмотров: 84
                            Flight Facilities - Foreign Language                                 


This notation is just up to the end of the first chorus. The riff continues to vary but this should
give you enough of an idea!



  Intro 
               Q    E.  S E  E  E  E     E  E  Q    Q    E  S S  
G||-------||--------------------------|-------------------------|
D||-------||*-------------------------|-----2-------------------|
A||-------||*--2----2---x-2--4--5-----|---------------------0-1-|
E||-------||-----------------------0--|--L-----0----0-----------|


  Q    E.  S E  E  E  E     E  E  Q    Q    Q        Verse 1: Drop out                       
-------------------------|------------------------||-------|-------|-------|
-------------------------|-----2-----------------*||-------|-------|-------|
--2----2---x-2--4--5-----|-----------------------*||-------|-------|-------|
----------------------0--|--L-----0----0----2-----||-------|-------|-------|


          Back in                                             
          Q       E.  S E  E  E  E     E  E  Q    Q    E  E   
-------|----------------------------|------------------------|
-------|----------------------------|-----2------------------|
-------|--2-------2---x-2--4--5-----|------------------0--1--|
-------|-------------------------0--|--L-----2----3----------|


  Q    E.  S E  E  E  E     E  E  Q    Q     Q        Q    E.  S S S E  E  E   
-------------------------|-------------------------|--------------------------|
-------------------------|-----2-------------------|-----------------7--9-----|
--2----2---x-2--4--5-----|-------------------------|--2----2---x-7-9----------|
----------------------0--|--L-----2----3----16\----|-----------------------0--|


  E  E  Q    Q    Q       Q    E.  S S S E  E  E     E  E  Q    Q    Q     
-----------------------|--------------------------|-----------------------|
-----2-----------------|-----------------7--9-----|-----2-----------------|
-----------------------|--2----2---x-7-9----------|-----------------------|
--L-----0----0----2----|-----------------------0--|--L-----0----0----2----|


  Q    E.  S E  E  E  E     E  E  Q    Q    E  E     Q    E.  S E  E  E  E   
-------------------------|------------------------|-------------------------|
-------------------------|-----2------------------|-------------------------|
--2----2---x-2--4--5-----|------------------0--1--|--2----2---x-2--4--5-----|
----------------------0--|--L-----2----3----------|----------------------0--|


                        Chorus

  H        E  E  E  E     Q    E.  S E  E  E  E     E  E  Q    Q    Q     
-----------------------|-------------------------|-----------------------|
--------------5--------|-------------------------|-----2-----------------|
-----------------0--1--|--2----2---x-2--4--5-----|------------------0----|
-----------3-----------|----------------------0--|--L-----2----3---------|


  Q    E.  S S S E  E  E     E  E  E  E  E  E  E  E   
--------------------------|-----------------------2--|
-----------------7--9-----|-----2-----4-----5--------|
--2----2---x-7-9----------|--------------------0-----|
-----------------------0--|--L-----2-----3-----------|


          (Slap)                                           
  Q    E  S      S S S S S S S E     E  E  Q    Q    Q     
----------2------4---x------------|-----------------------|
-----------------------2-4---x----|-----2-----------------|
--2----2-----------x--------------|-----------------------|
---------------------------x---0--|--L-----0----0----2----|


  Q    E.  S E  E  E  E     E  E  E  E  E  E  E  E     Q    E.  S E  E  E  E   
-------------------------|-----------------------2--|-------------------------|
-------------------------|-----2-----4-----5--------|-------------------------|
--2----2---x-2--4--5-----|--------------------0-----|--2----2---x-2--4--5-----|
----------------------0--|--L-----2-----3-----------|----------------------0--|


                                   (Slap)                   
  E  E  Q    Q    E  E     Q    E  S      S S S S S S S E   
------------------------|----------2------4---x------------|
-----2------------------|-----------------------2-4---x----|
------------------0--1--|--2----2-----------x--------------|
--L-----2----3----------|---------------------------x---0--|


  E  E  Q    Q    E  E     Q    E.  S E  E  E  E     E  E  Q    Q    E  S S  
------------------------|-------------------------|-------------------------|
-----2------------------|-------------------------|-----2-------------------|
------------------0--1--|--2----2---x-2--4--5-----|---------------------0-1-|
--L-----0----0----------|----------------------0--|--L-----0----0-----------|


  Q    E.  S E  E  E  E     Q    Q    E  E  E  E    
-------------------------|---------------------2--||
----------------------2--|--L----2----2--4--5-----||
--2----2---x-2--4--5-----|------------------------||
-------------------------|------------------------||




Duration Legend
---------------
W - whole
H - half
Q - quarter
E - 8th
S - 16th
T - 32nd
X - 64th
. - note dotted
|-n-|  - n-tuplets


Tablature Legend
----------------
L - tied note
x - dead note
g - grace note
(n) - ghost note
> - accentuded note
NH - natural harmonic
AH - artificial harmonic
TH - tapped harmonic
SH - semi harmonic
PH - pitch harmonic
h - hammer on
p - pull off
b - bend
br - bendRelease
pb - preBend
pbr - preBendRelease
brb - bendReleaseBend
\n/ - tremolo bar dip
\n - tremolo bar dive
-/n - tremolo bar Release up
/n\ - tremolo bar inverted dip
/n - tremolo bar return
-\n - tremolo bar Release down
S - shift slide
s - legato slide
/ -  slide into from below or out of upwards
\ -  slide into from above or out of downwards
~ - vibrato
W - wide vibrato
tr - trill
TP - tremolo picking
T - tapping
S - slap
P - pop
< - fade in
^ - brush up
v - brush down
Добавлено: 12.06.2016
Вам также может быть интересно:
Другие материалы по этой песне:

Страница создана 15.09.2014
http://primanota.ru/flight-facilities/foreign-language-chords.htm
Привет, Гость.
Предлагаем пройти революционный курс по гитаре.
Подарок от PrimaNota.Ru, забирай!