PrimaNota.ru - самый крупный в мире бесплатный архив песенных текстов, аккордов, табулатур и нот


Fleshless - Scream Of Decapitated - таба, видео

Регистрация Запомнить меня
Войти через:  Facebook Google Twitter Vk Yandex Mail.ru

Fleshless - Scream Of Decapitated - таба, видео

Печатать
Просмотров: 53
Band: Fleshless
Song: Scream Of The Decapitated
Album: Sensual Death Immitation (2003)
Label: Obscene Productions



Tuning B E A D F# B


b = bend                p = pull off
h = half                h = hammer on
f = full                q = quarter
r = release             t = tap
/ = slide up            \ = slide down
n = natural harmonic  ~ = vibrato
tr - trill

Intro

(0:00-0:04)
|------------------|
|------------------|
|------------------|
|-----------2--7---|
|-2---4--5--3--5---|
|-0---2--3---------|




Riff 1

(0:05-0:44)
|----------------------------------------------------|
|----------------------------------------------------|
|----------------------------------------------------|Gtr1
|----------------------------------------------------|
|-22-2-22--4-44--5-55--/1010101010101010-/999999999--|
|-00-0-00--2-22--3-33--------------------------------|
|                       . . . . . . . .   .........
|----------------------------------------------------|
|----------------------------------------------------|
|----------------------------------------------------|Gtr2
|----------------------------------------------------|
|-22-2-22--4-44--5-55--/1010101010101010-/999999999--|
|-00-0-00--2-22--3-33--------------------------------|
                       . . . . . . . .   .........

continued

                                                     (second time)
|----------------------------------------------------|-----------|
|----------------------------------------------------|-----------|
|----------------------------------------------------|-----------|Gtr1
|----------------------------------------------------|-5---------|
|-22-2-22--4-44--5-55--/1010101010101010-/999999999--|-6--3-3-3--|
|-00-0-00--2-22--3-33--------------------------------|----1-1-1--|
|                       . . . . . . . .   .........    .  . . .
|----------------------------------------------------|-----------|
|----------------------------------------------------|-----------|
|----------------------------------------------------|-----------|Gtr2
|----------------------/1010101010101010-/999999999--|-5---------|
|-22-2-22--4-44--5-55--------------------------------|-6--3-3-3--|
|-00-0-00--2-22--3-33--------------------------------|----1-1-1--|
                       . . . . . . . .   .........     .  . . .




Riff 2a

(0:45-1:14)
|------------------------|
|------------------------|
|------------------------|
|------------------------|
|-5\2-2-2-5\2-2-2-5\2-2--|
|-3\0-0-0-3\0-0-0-3\0-0--|




Riff 3a
(1:14-1:34)
|-----------------------|
|-----------------------|
|-----------------------|
|-----------------------|
|-52-2-2-32-2-2-32-2-2--|
|-30-0-0-10-0-0-10-0-0--|
  .. . . .. . . .. . .



Repeat Riff 1 (1:34-2:15)



Riff 2b

(2:15-2:35)
|---------------------------------|
|---------------------------------|
|---------------------------------|
|----------------------------5----|
|-5\2-2-2-5\2-2-2-5\2-2----5---5--|
|-3\0-0-0-3\0-0-0-3\0-0--5--------|
                         n n n n



Riff 3b

(2:35-2:55)
|--------------------------------|
|--------------------------------|
|--------------------------------|
|---------------------------5----|
|-52-2-2-32-2-2-32-2-2----5---5--|
|-30-0-0-10-0-0-10-0-0--5--------|
                        n n n n


Riff 4a (2:55-3:08)
|-------------------------------------------------------------------------|
|-------------------------------------------------------------------------|
|-------------------------------------------------------------------------|
|------2tr5----------------2tr5--------558877101044775588558877101044775--|
|-5tr7------4tr5-5tr7-5tr7------4tr5-5------------------------------------|
|-------------------------------------------------------------------------|


Riff 4b
|-------------------------------------------------------------------------|
|-------------------------------------------------------------------------|
|-------------------------------------------------------------------------|
|-558877101044775588558877101044775------2tr5----------------2tr5---------|gtr 1
|-----------------------------------5tr7------4tr5-5tr7-5tr7------4tr5-5--|
|-------------------------------------------------------------------------|

|-------------------------------------------------------------------------|
|-------------------------------------------------------------------------|
|-------------------------------------------------------------------------|
|-------------------------------------------------------------------------|
|-558877101044775588558877101044775------2tr5----------------2tr5---------|gtr 2
|-----------------------------------5tr7------4tr5-5tr7-5tr7------4tr5-5--|



Repeat Riff 1 (3:09-3:29)


End with (3:30)

|----|
|----|
|----|
|-2--|
|-2--|
|-0--|
  .
Добавлено: 21.11.2013
Другие материалы по этой песне:
  • Аккорды и текст

Страница создана 21.11.2013
http://primanota.ru/fleshless/scream-of-decapitated-chords.htm
Привет, Гость.
Предлагаем пройти революционный курс по гитаре.
Подарок от PrimaNota.Ru, забирай!