PrimaNota.ru - самый крупный в мире бесплатный архив песенных текстов, аккордов, табулатур и нот


Fleming And John - Im Not Afraid - таба, бас-таба, видео

Регистрация Запомнить меня
Войти через:  Facebook Google Twitter Vk Yandex Mail.ru

Fleming And John - Im Not Afraid - таба, бас-таба, видео

Печатать
Просмотров: 145
		   "I'm Not Afraid"                                        
 by: "Fleming and John"                               
 album: "Delusions of Grandeur"                                  
 written by: "Fleming and John"    
 from: "Jason Gray  (sacred@teabbs.com)"              
  

 Fleming and John - "I'm Not Afraid"
 Tabbed by Jason Gray (sacred@teabbs.com)

 Tuning: normal (EADGBE)

 Intro:


 Bass:              |------repeat seven times------|      
G|---------------------------------------------------------|
D|---------------------------------------------------------|
A|-----------------------2--2-2-1-0------0--0-0------------|
E|--2-------(2)------2---------------0----------4-3--------|



 Gtr. 1 (w/ distortion)
    F#  E         F#   G      A    B       F#  E
e|---------------------------------------------------------|
B|---------------------------------------------------------|
G|--3---1----------------------------------3---1-----------|
D|--4---2--------(4)--(5)----(7)--(9)------4---2-----------|
A|--4---2--------(4)--(5)----(7)--(9)------4---2-----------|
E|--2---0--------(2)--(3)----(5)--(7)------2---0-----------|

 Slide Interlude:

 Gtr. 2 (w/ slide and distortion)
     F#           E
e|---------------------------------------------------------|
B|-----------11~~---------9~~------------11~~---11-\-9-----| repeat 3x
G|-------11------------9-------------11---------11-\-9-----| then slide
D|--/11------------/9-----------/11-------------11-\-9-----| down the
A|---------------------------------------------------------| neck.
E|---------------------------------------------------------|

 Chorus:

 Gtr. 1 (w/ distortion)
     E   F#  G     A   B
e|---------------------------------------------------------|
B|--------------------------------------------2--0---------|
G|---1---3---4-----6---8-----1---3---4--------3--1---------| 2x
D|---2---4---5--X--7---9-----2---4---5--X--X--4--2---------|
A|---2---4---5--X--7---9-----2---4---5--X--X--4--2---------|
E|---0---2---3--X--5---7-----0---2---3--X--X--2--0---------|


 Gtr. 1 (/w distortion)
    F#      B          Bb A   E        A         Ab G
e|---------------------------------------------------------|
B|---------------------------------------------------------|
G|-----------4---4--4--3--2--------------------------------|
D|--4--4--4--4---4--4--3--2---2--2--2--7---7--7--6--5------|
A|--4--4--4--2---2--2--1--0---2--2--2--7---7--7--6--5------|
E|--2--2--2-------------------0--0--0--5---5--5--4--3------|


 Solo:

   Yeah, right. (mail me if you've got any ideas)


 Finally end on F# E

 Tabbed by Jason Gray (sacred@teabbs.com)


Lyrics:   (from www.auburn.edu/~mccorke/fj.html)

The song is from Delusions of Grandeur (an _excellent_ album, BTW),

I'm Not Afraid
--------------

I'm afraid of growing old I'm afraid of staying young
        and running out of fun
I'm afraid of photographs of mom and dad when they
        were young
I'm afraid of spending my life waiting for a day that
        may never come
I'm afraid of earthquakes hurricanes and others acts
        of God
I'm afraid of having kids I'm afraid there'll be no
        world for them to live (in)
I'm afraid of pleasing other people all the time
I'm afraid of jealousy cupidity and all words that
        end in "e"
I'm afraid of madmen with bombs who think they're God

But I'm not afraid I'm not afraid I'm not afraid of you

I'm afraid of driving over 65 I'm afraid of flying
        in the sky
I'm afraid of getting out of bed and nowhere to put
        my head
I'm afraid of multiple choice when 'a' and 'b' and
        'c' and 'd' are true
I'm afraid of not being afraid

But I'm not afraid I'm not afraid I'm not afraid of you

You're a constant in life's stream of variables
As sure as the sun and the moon
You're a certain in this world of changeables
You are you and that's the only things I know that's true

But I'm not afraid I'm not afraid I'm not afraid of you

I'm afraid of growing old afraid of staying young and
        running out of fun
afraid of photographs of mom and dad when they were young


     
Добавлено: 07.11.2013
Вам также может быть интересно:
Другие материалы по этой песне:
  • Аккорды и текст

Страница создана 11.03.2012
http://primanota.ru/fleming-and-john/im-not-afraid-chords.htm
Привет, Гость.
Предлагаем пройти революционный курс по гитаре.
Подарок от PrimaNota.Ru, забирай!